Cifra Club

Aprenda

No Fundo do Coração (Acústico MTV)

Sandy & Junior

Tablatura: Principal (guitarra)
tono: D
Intro: D  A  G  A (2x)

D                       A
Eu quero ser um lindo sonho pro teu coração
G                    A
Quero fazer da sua vida poesia e canção
D                        A                     G
Eu quero estar no seu caminho como um raio de sol
                            A                         Bm
E pros teus passos mais distantes te guiar como um farol
   B9 Bm
Eu quero
   D9         A  A11
É tudo que eu quero
    G                A
Do fundo do meu coração
             D                  A
Vou te encontrar na luz das estrelas
        G                A
Te refletir nas águas do mar
        D             A
Quero ficar assim pra sempre
            G              A
Porque pra mim a vida é te amar
 D                   A
Se por acaso alguma nuvem encobrir teu céu
G                        A                   D
Eu vou buscar no arco-íris aquarela e pincel
                       A
Pintar sorrisos nas palavras que você disser
G                   A
Te dar magia e alegria
              Bm        B9 Bm     D9    A  A11
É meu jeito de dizer "te amo",que eu te quero
     G              A
Do fundo do meu coração
              D                 A
Vou te encontrar na luz das estrelas
        G                 A
Te refletir nas águas do mar
        D             A
Quero ficar assim pra sempre
           G                A
Porque pra mim a vida é te amar
G                A
Você é um lindo sonho
G                    A                      G
Que eu vivo a te olhar,que acorda o meu coração
    A                  G
Um sonho assim jamais tem fim
    A                      D  A
Um sonho assim jamais tem fim

E |--------------5--------------------------------------------------------------|
B |-----3----5/7-----8p78p7-5---3h5-3h5~~------------------------5p3-5-3-5/7~~--|
G |-2h4---4-------------------7-------------4-7p6--2-----2---4p2----------------|
D |-------------------------------------------------2--2---2--------------------|
A |-----------------------------------------------------------------------------|
E |-----------------------------------------------------------------------------|

E |------------------------------------------10p9---------------10------10-------10--10--------|
B |-----3-5/7--8p78p7---12----10/12-10~~--12--------------10h12---10h12----10h12-----10h12-10--|
G |-2h4---------------7----12---------------------9--------------------------------------------|
D |-------------------------------------------------12-11--------------------------------------|
A |--------------------------------------------------------------------------------------------|
E |--------------------------------------------------------------------------------------------|

              D                 A
Vou te encontrar na luz das estrelas
        G                 A
Te refletir nas águas do mar
        D             A
Quero ficar assim pra sempre
           G                A
Porque pra mim a vida é te amar
 D                 A
Vou te encontrar na luz das estrelas
        G                 A
Te refletir nas águas do mar
        D             A
Quero ficar assim pra sempre
           G                A
Porque pra mim a vida é te amar
    D   A   G  A
Uuu....
135 reproducciones
    • ½ Tono
    • A
    • Bb
    • B
    • C
    • Db
    • D
    • Eb
    • E
    • F
    • F#
    • G
    • Ab
  • Adicionar à lista

    0 comentarios

    Ver todos os comentários

    ¿Conseguiste tocar?

    2 Tocaram 0 Ainda não

    Grave um vídeo tocando No Fundo do Coração (Acústico MTV) e nos envie!

    00:00 / 00:00
    outros vídeos desta música
    repetir qualidade Automático
    Outros vídeos desta música
    00:00 / 00:00
    Automático
    OK