Cifra Club

Debo Entender (part. Neto Peña Y Yoss Bones)

Santa Fe Klan

Cifrado: Principal (guitarra y guitarra eléctrica)
tono: Am
[Intro] 

[Tab - Dedilhado] 

Parte 1 de 3 
    Am            Am4(9) Dm9/E
E|--0-------------------10------------------|
B|------------------------------------------|
G|-------9----9----7----------10----9-------|
D|----10---10---10---9-----12----12---12/15-|
A|--0---------------------------------------|
E|----------------------0-------------------|

Parte 2 de 3 
            F9          Fm7M G4(6) 
E|----------3----------------0--------------|
B|-------------------------------1----------|
G|--14----------2---2---1------4---4/9------|
D|-----15-----3---3---3---2-----------------|
A|------------------------------------------|
E|----------1----------------3--------------|

Parte 3 de 3 
E|------------------------------------------|
B|--5---9-----------------------------------|
G|----7---10--------------------------------|
D|------------------------------------------|
A|------------------------------------------|
E|------------------------------------------|

Am      Am4(9) Dm9/E      F9
   Tú, tú,     ú, tú, tú, ú
       Fm7M        G4(6)
Tú te fuiste de aquí y yo

[Refrão] 

Am                             Am4(9) Dm9/E
   Debo entender que no te volveré a ver
                             F9
Olvidarme de ti, no voy a poder
                       Fm7M    G4(6)
Me pregunto ahora qué voy a hacer

Yo no lo puedo creer

Am                                  Am4(9) Dm9/E
   Pero debo entender que no te volveré a ver
                             F9
Olvidarme de ti, no voy a poder
                       Fm7M    G4(6)
Me pregunto ahora qué voy a hacer

Si te acabo de perder

[Primeira Parte]

Am                                      Am4(9)  Dm9/E
   Por un largo tiempo buscando una explicación

Negado a la verdad, destruyendo mi corazón
F9                            Fm7M G4(6) 
  ¿Qué hubiera sido de mí? ¿Qué será?

Sin que haya culpable, nunca hay una razón

Am                                    Am4(9)  Dm9/E
   Así es la vida, todo se tiene que terminar

Y hasta que a mí me toque irme, vas a hacerme falta
F9                                       Fm7M     G4(6) 
   Tengo que dejarte ir, aunque no pare de llorar

Tengo que recuperar y mantener mi calma

[Segunda Parte] 

Am
   Seguiré mi misión
                                Am4(9)  Dm9/E
Y te juré que iba a hacerlo contento

Ahora entiendo que no es malo apartarte un tiempo

Para disfrutar el momento
F9                                      Fm7M  G4(6) 
   Te fuiste rápido y todo se hizo tan lento

Lo mejor para los dos es dejarte ir, lo siento

[Terceira Parte]

           Am
Todo el dolor se transformó
Am4(9)   Dm9/E
El frío por dentro quemó
             F9           
Rasgando el pecho, el corazón
       Fm7M     G4(6) 
Si te sigo queriendo

           Am
Amarga y triste mi canción
Am4(9) Dm9/E
Una batalla por tu adiós
         F9           
Sencillamente se esfumó
     Fm7M        G4(6) 
Brindo en tu recuerdo

Am                     Am4(9)  Dm9/E
   Misericordia en mi pena

Flechada está mi condena
F9                      Fm7M G4(6)  
   Y ahora que solo se terminó

Le lloro a la Luna llena

[Quarta Parte]

         Am
Y busco calma
     Am4(9)   Dm9/E
Se apagó la llama
                  F9
Se va muriendo mi alma
        Fm7M      G4(6) 
Mi corazón te reclama

  Am
Quisiera ser más fuerte
        Am4(9)   Dm9/E
Yo no quería perderte, pero así es mi suerte
                   F9
Quisiera volver a verte y cerca tenerte
        Fm7M      G4(6) 
Fue un gusto conocerte, yeh

   Am                                          Am4(9)   
Cenizas de este amor, mis lágrimas caen en tu foto
Dm9/E
      Respiro humo y tomo alcohol, siento el corazón roto
F9                                    Fm7M  G4(6) 
   Este dolor me está matando poco a poco
G4(6)
      Si tú no vuelves, me voy a volver loco

[Quinta Parte]

 Am          Am4(9) Dm9/E
Lágrimas de mi     ser
           F9  Fm7M
Cuando tu voz 
     G4(6) 
Se aleja

  Am          Am4(9) Dm9/E
Guitarra triste,    yeh
               F9   Fm7M
Que entre tus besos
    G4(6) 
Me deja

[Refrão Final]

Am                             Am4(9) Dm9/E
   Debo entender que no te volveré a ver
                             F9
Olvidarme de ti, no voy a poder
                       Fm7M    G4(6)
Me pregunto ahora qué voy a hacer

Yo no lo puedo creer

Am                                  Am4(9) Dm9/E
   Pero debo entender que no te volveré a ver
                             F9
Olvidarme de ti, no voy a poder
                       Fm7M    G4(6)
Me pregunto ahora qué voy a hacer

Si te acabo de perder

[Final]

[Tab - Dedilhado Final] 

Parte 1 de 3 
    Am            Am4(9) Dm9/E
E|--0-------------------10------------------|
B|------------------------------------------|
G|-------9----9----7----------10----9-------|
D|----10---10---10---9-----12----12---12/15-|
A|--0---------------------------------------|
E|----------------------0-------------------|

Parte 2 de 3 
            F9          Fm7M G4(6) 
E|----------3----------------0--------------|
B|-------------------------------1----------|
G|--14----------2---2---1------4---4/9------|
D|-----15-----3---3---3---2-----------------|
A|------------------------------------------|
E|----------1----------------3--------------|

Parte 3 de 3 
E|------------------------------------------|
B|--5---9-----------------------------------|
G|----7---10--------------------------------|
D|------------------------------------------|
A|------------------------------------------|
E|------------------------------------------|
00:00 / 00:00
Otros videos de esta canción
Repetir
Otros videos de esta canción
Composición de Alan Rodrigo Ledesma
Colaboración y revisión:
  • Gustavo Zanandrez
146 vistas
    • ½ Tono
    • Am
    • Bbm
    • Bm
    • Cm
    • C#m
    • Dm
    • Ebm
    • Em
    • Fm
    • F#m
    • Gm
    • G#m
  • Agregar a la lista

    0 comentarios

    Ver todos los comentarios

    ¿Lograste tocar?

    0 Tocaron 0 Aún no

    ¡Graba un video tocando Debo Entender (part. Neto Peña Y Yoss Bones) y envíanoslo!

    00:00 / 00:00
    OK