Cifra Club

Pra Quem Tem Medo da Morte

Sanza

Cifrado: Principal (guitarra y guitarra eléctrica)
tono: Cm
[Intro] Cm  Bb  Ab

  Cm
E|------------------------------------|
B|----------4----------------4--------|
G|-------5----------------5-----------|
D|------------------------------------|
A|--3----------------3----------------|
E|--------------------------------4/6-|

  Bb
E|------------------------------------|
B|------------------------------------|
G|------------7---------------7-------|
D|-----------------------8------------|
A|------------------------------------|
E|-------------------6----------------|

  Ab
E|------------------------------------|
B|------------------------------------|
G|-----------5-------------5----------|
D|--------6------------6--------------|
A|------------------------------------|
E|--4---------------4-------------4/6-|

  Bb
E|------------------------------------|
B|------------------------------------|
G|------------7---------------7-------|
D|-----------------------8------------|
A|------------------------------------|
E|-------------------6----------------|

Cm  
Pra quem tem medo da morte
Bb
Digo que ela já chegou
Ab
Já que eu não morro

Casei com o seu dom
Bb
De levar justo quem precisa

Cm
Acordei com peso nos pés
Bb
Medo de levantar e não sentir
Ab
O frio do chão de manhã
Bb
A pulsação rápida normal de si
Cm
Vou dar um role

Sem envelhecer
Bb
Não quero dar

Trabalho pra você
Ab
Não sei se minha cria

Vai me ver
Bb
Nem o nome

Que eu vou escolher
Cm
Talvez o mundo

Seja simples sim
Bb
Ou só mais um plano

De alguém pra esconder
Ab                                 Bb
A felicidade que eu poderia sentir
Cm
Me espera
Bb
Antes de ir embora
Ab                                   Bb
Eu queria deixar um recado pra terra

Cm
Ninguém é perfeito não
Bb
Eu errei demais por aqui
Ab
Talvez sua educação
Bb
Humano esteja errada
Cm
Sua própria casa

Com medo que acabe
Bb                       Ab  Bb
Mas na verdade já acabou

Cm
Vou dar um role

Sem envelhecer
Bb
Não quero dar

Trabalho pra você
Ab
Não sei se minha cria

Vai me ver
Bb
Nem o nome

Que eu vou escolher

Cm
Talvez o mundo

Seja simples sim
Bb
Ou só mais um plano

De alguém pra esconder
Ab                                 Bb
A felicidade que eu poderia sentir
00:00 / 00:00
Otros videos de esta canción
Repetir
Otros videos de esta canción
Composición de Sanza
Colaboración y revisión:
  • Richard Garcia
  • Richard Garcia
1 exhibiciones
    • ½ Tono
    • Am
    • Bbm
    • Bm
    • Cm
    • C#m
    • Dm
    • Ebm
    • Em
    • Fm
    • F#m
    • Gm
    • G#m
  • Agregar a la lista
    00:00 / 00:00
    OK