Cifra Club

Contigo, sin tí

Saratoga

Cifrado: Principal (guitarra y guitarra eléctrica)
tono: Am
-Intro:
E|------------------------------------------------------------------|
B|------------------------------------------------------------------|
G|--9/--9-7-9-------7--7----9-9-------9-7-5--------9-9-----7-7------|
D|--9/--9-7-9-------7--7----9-9-------9-7-5--------9-9-----7-7------|
A|--7/--7-5-7-------5--5----7-7-------7-5-3--------7-7-----5-5------|
E|------------0-0-0-------0-------0-0--------0-0-0------0-------0-0-|
PM          * * *       *       * *        * * *      *       * *
E|------------------------------------------------------------------|
B|------------------------------------------------------------------|
G|--9-7-9--------7-7----9-9-----9-11--------------------------------|
D|--9-7-9--------7-7----9-9-----9-11--12--------12-12---14-14-14/---|
A|--7-5-7--------5-5----7-7-----7--9--10--------10-10---12-12-12/---|
E|---------0-0-0------0-----0-0-----------0-0-0-------0-------------|
PM       * * *      *     * *           * * *       *
-Verso
(aqui ustedes le dan el ritmo que debe de llevar cada acorde
yo solo pongo cual es y cuando cambia xD)(son con PM todos los del verso)
    E           G           C           A#
E|---------| ---------   ---------   ---------
B|---------| ---------   ---------   ---------
G|---------| ---------   ---------   ---------
D|---------| ---------   ----5----   ----4----
A|----2----| ----5----   ----3----   ----2----
E|----0----| ----3----   ---------   ---------

E                       G
Mirame, hoy no quiero pedir perdon
               C                        A#
El silencio lo pongo yo, solo voy a escuchar
E                            G
Porque al hablar reconosco tu frialdad
               C                         A#
eso es algo ya familiar aunque lo negaras, lo se

-Precoro

''Y Si Tengo La Oportunidad...''

E|--------------------------------------------------------------|
B|--------------------------------------------------------------|
G|--5---7-------7---5---7-------9------7----9-----9-----7-------|
D|--5---7---5---7---5---7-------9------7----9-----9-----7-------|
A|--3---5---5---5---3---5-------7------5----7-----7-----5-------|
E|----------3---------------0-0----0-0----0---0-0---0-0----0-0--|
PM                        * *    * *    *   * *   * *    * *
E|------------------------| ---------
B|------------------------| ---------
G|--5--7-----7--5--7---9--| ----9----
D|--5--7--5--7--5--7---9--| ----9----
A|--3--5--5--5--3--5---7--| ----7----
E|--------3---------------| ---------

E|-Coro|

''Contigo Vivire...''

E|-------------------------------------------------------|
B|-------------------------------------------------------|
G|--9----------9------------------------5------7------5--|
D|--9----------9------------------------5------7------5--|
A|--7----------7------------------------3------5------3--|
E|-----0-0-0-0---0-0-0-0-0-0-0-0-0-0-0-----0-0----0-0----|

E|-------------------------------------------------------|
B|-------------------------------------------------------|
G|--7----------7------------------------5------7-----5---|
D|--7----------7------------------------5------7-----5---|
A|--5----------5------------------------3------5-----3---|
E|----0-0-0-0-----0-0-0-0-0-0-0-0-0-0-0----0-0---0-0-----|

E|-------------------------------------------------------|
B|-------------------------------------------------------|
G|--9---------9---------------------------5-----7-----5--|
D|--9---------9---------------------------5-----7-----5--|
A|--7---------7---------------------------3-----5-----3--|
E|----0-0-0-0----0-0-0-0-0-0-0-0-0-0-0-0----0-0---0-0----|

E|-------------------------------------------------------|
B|-------------------------------------------------------|
G|------7----------7-----------------------------5-------|
D|------7----------7-----------------------------5-------|
A|------5----------5-----------------------------3-------|
E|--0-0----0-0-0-0----0-0-0-0-0-0-0-0-0-0-0-0-0----------|

E|---------------------------------|
B|---------------------------------|
G|------7------5-------------------|
D|------7------5-------------------|
A|------5------3-------------------|
E|--0-0----0-0---------------------|

-Intro

-Verso (igual que el primero)

-Precoro (igual que el anterior)

E|-Coro| (igual que el anterior)

-Intro

-Solo (lleva puro acompañamiento del bajo)

E|-Coro| (igual que el anterior)

-Intro

Despues asi es el final

E|----------------------------------------------------------|
B|----------------------------------------------------------|
G|------9-----11----12-----12-----11----9------9----11---12-|
D|------9-----11----12-----12-----11----9------9----11---12-|
A|------7------9----10-----10------9----7------7-----9---10-|
E|--0-0---0-0-----0----0-0----0-0-----0----0-0---0-0---0----|

E|-----------------------------------------------------------|
B|-----------------------------------------------------------|
G|------12------11---9------9------11---12-----12----11------|
D|------12------11---9------9------11---12-----12----11------|
A|------10-------9---7------7-------9---10-----10-----9------|
E|--0-0-----0-0----0----0-0----0-0----0----0-0----0-0---0-0--|

E|----------------|
B|----------------|
G|--9-7-9---------|
D|--9-7-9---------|
A|--7-5-7---------|
E|----------------|

Bueno eso es todo espero que les sirva en cuanto pueda sacar el solo
lo mando para cualquier duda comentario insulto o amenaza
escribeme a:
bye!!!!!!!
00:00 / 00:00
Otros videos de esta canción
Repetir
Otros videos de esta canción
Composición de Leo Jiménez y Jerónimo Ramírez
7 vistas
    • ½ Tono
    • Am
    • Bbm
    • Bm
    • Cm
    • C#m
    • Dm
    • Ebm
    • Em
    • Fm
    • F#m
    • Gm
    • G#m
  • Agregar a la lista

    0 comentarios

    Ver todos los comentarios

    ¿Lograste tocar?

    0 Tocaron 0 Aún no

    ¡Graba un video tocando Contigo, sin tí y envíanoslo!

    00:00 / 00:00
    OK