Cifra Club

Resurreccion

Saratoga

Cifrado: Principal (guitarra y guitarra eléctrica)
tono: Em
      Em
E|----------------|---------------|----------------|------------------|
B|----------------|---------------|----------------|--------------| Ha--|
G|----------------|------------| Ha-|----------------|--------------v5--|
D|-2-2--------| Ha--|-2-2---------3-|-2-2--------Ha--|---2---3---5------|
A|-2-2-3---2---3--|-2-2-2---3-----|-2-2-3---2---3--|-2---3---5--------|
E|-0-0---0---0----|-0-0---0---0---|-0-0---0---0----|------------------|

  Em
E|----------------|---------------|----------------|------------------|
B|----------------|---------------|----------------|------------------|
G|----------------|------------| Ha-|----------------|------------------|
D|-2-2--------| Ha--|-2-2---------3-|-2-2--------Ha--|---5---3---2---0--|
A|-2-2-3---2---3--|-2-2-2---3-----|-2-2-3---2---3--|-5---3---2---0----|
E|-0-0---0---0----|-0-0---0---0---|-0-0---0---0----|------------------|

     Em
E|----------------|---------------|----------------|------------------|
B|----------------|---------------|----------------|--------------| Ha--|
G|----------------|------------| Ha-|----------------|--------------v5--|
D|-2-2--------| Ha--|-2-2---------3-|-2-2--------Ha--|---2---3---5------|
A|-2-2-3---2---3--|-2-2-2---3-----|-2-2-3---2---3--|-2---3---5--------|
E|-0-0---0---0----|-0-0---0---0---|-0-0---0---0----|------------------|

  Em
E|----------------|---------------|----------------|-------------------|
B|----------------|---------------|----------------|-------------------|
G|----------------|------------| Ha-|----------------|-------------------|
D|-2-2--------| Ha--|-2-2---------3-|-2-2--------Ha--|---5---3---2---0---|
A|-2-2-3---2---3--|-2-2-2---3-----|-2-2-3---2---3--|-5---3---2---0---0-|
E|-0-0---0---0----|-0-0---0---0---|-0-0---0---0----|-------------------|



En este trozo hay dos guitarras, una es la parte rítmica y la otra la parte
que acentúa la nota que le corresponde.

     3X
          Em         B    C    G
E|----------|----|----|----|
B|----------|----|----|----|
G|----------|----|----|----|
D|----------|-4--|-5--|-5--|

          Em         B    C    G
E|----------|----|----|----|
B|----------|----|----|----|
G|----------|----|----|----|
D|----------|-| Ha-|-Ha-|----|

    Em             B C G
E|-----------------------|
B|-----------------------|
G|-----------------------|
D|----------------4/5-5--|
A|-2-22-2-22-2-2--2/3-5--|
E|-0-00-0-00-0-0------3--|

 1- Toda la vida rezando
 2- Dices que no habrá
   Em               D
E|------------------------------------|
B|------------------------------------|
G|------------------------------------|
D|------------------7777777777777777--|
A|-2222222222222222-5555555555555555--|
E|-0000000000000000-------------------|

      1- por tu  parcela
      2- estos es una
       A                                      B
E|------------------------------------|
B|------------------------------------|
G|------------------------------------|
D|-2222222222222222-4444444444444444--|
A|-0000000000000000-2222222222222222--|
E|------------------------------------|

  1- en el cielo.
  2- transición.
   Em             D
E|------------------|
B|------------------|
G|------------------|
D|-999999999999-9-7-|
A|-777777777777-7-5-|
E|------------------|


1- No me importa si existe un final
   tal vez no
2- Yo no quiero saber que hay detrás
   del telón
    Em
E|-----------------|
B|-----------------|
G|-----------------|
D|----------9-7-4--|
A|-2-2222--10-9-5--|
E|-0-0000----------|

1- Y por eso prefiero vivir bien mi vida.
2- si tu tienes mas prisa termina.
   Em
E|----------------------|
B|----------------------|
G|----------------------|
D|----------9-7-4-2--4--|
A|-2-2222--10-9-5-3--5--|
E|-0-0000---------------|

     3X
          Em         B    C    G
E|----------|----|----|----|
B|----------|----|----|----|
G|----------|----|----|----|
D|----------|-4--|-5--|-5--|

          Em         B    C    G
E|----------|----|----|----|
B|----------|----|----|----|
G|----------|----|----|----|
D|----------|-| Ha-|-Ha-|----|

    Em             B C G
E|-----------------------|
B|-----------------------|
G|-----------------------|
D|----------------4-5-5--|
A|-2-22-2-22-2-2--2-3-5--|
E|-0-00-0-00-0-0------3--|

E|--------------------------------------|

 1- No te resignas a ver
 2- Ciego prefieres creer
   Em               D
E|------------------------------------|
B|------------------------------------|
G|------------------------------------|
D|------------------7777777777777777--|
A|-2222222222222222-5555555555555555--|
E|-0000000000000000-------------------|

      1- lo que prepara
      2- que el paraiso vendrá tras el último
       A                                      B
E|------------------------------------|
B|------------------------------------|
G|------------------------------------|
D|-2222222222222222-4444444444444444--|
A|-0000000000000000-2222222222222222--|
E|------------------------------------|

  1- el destino.
  2- adiós.
   Em             D
E|------------------|
B|------------------|
G|------------------|
D|-999999999999-9-7-|
A|-777777777777-7-5-|
E|------------------|


1- No me importa si existe un final
   tal vez no
2- Yo no quiero saber que hay detrás
   del telón
    Em
E|-----------------|
B|-----------------|
G|-----------------|
D|----------9-7-4--|
A|-2-2222--10-9-5--|
E|-0-0000----------|

1- Y por eso prefiero vivir bien mi vida.
2- si tu tienes mas prisa termina.
   Em
E|----------------------|
B|----------------------|
G|----------------------|
D|----------9-7-4-2--4--|
A|-2-2222--10-9-5-3--5--|
E|-0-0000---------------|

E|---------|
B|---------|
G|---------|
D|-5---7---|
A|-7---9---|
E|---------|

 4X
E|---------------------------------|
B|---------------------------------|
G|---------------------------------|
D|---3/2---3/2---3/2---3/2--4-5-7--|
A|---3/2---3/2---3/2---3/2--2-3-5--|
E|-0-----0-----0-----0------2-3-5--|

  2X
E|-----------------------------------|
B|-----------------------------------|
G|-----------------------------------|
D|-5--4-5-5--5-7--8--10--8-7-5-4-5---|
A|-7--5-7-4--7-9-10--12-10-9-7-5-7---|
E|-----------------------------------|
00:00 / 00:00
Otros videos de esta canción
Repetir
Otros videos de esta canción
Composición de Leo (la bestia)
2 vistas
    • ½ Tono
    • Am
    • Bbm
    • Bm
    • Cm
    • C#m
    • Dm
    • Ebm
    • Em
    • Fm
    • F#m
    • Gm
    • G#m
  • Agregar a la lista

    0 comentarios

    Ver todos los comentarios

    ¿Lograste tocar?

    0 Tocaron 0 Aún no

    ¡Graba un video tocando Resurreccion y envíanoslo!

    00:00 / 00:00
    OK