Cifra Club

Trully madly deeply

Savage Garden

Cifrado: Principal (guitarra y guitarra eléctrica)
Selo Cifra Club: esta cifra foi revisada para atender aos critérios oficiais da nossa Equipe de Qualidade.
tono: C
Intro: (C G F G)

C                                  G                        F
I'll be your dream, I'll be your wish, I'll be your fantasy.
                                   G                           C
I'll be your hope, I'll be your love, be everything that you need.
                             G                          F
I love you more with every breath truly, madly, deeply do...
                            G                              Am
I will be strong, I will be faithful, cos I'm counting on a new beginning...
   G                    F                G
A reason for living...A deeper meaning...Yeah..


(Refrão)
           C                   G
I want to stand with you on a mountain.
           F                     G
I want to bathe with you in the sea.
           C               G
I want to lay like this forever.
           F                 G
Until the sky falls down on me...


C                                G
And when the stars are shining brightly in the velvet sky,
F                             G
I'll make a wish send it to heaven then make you want to cry..
C                              G
The tears of joy for all the pleasure and the certainty.
F                              G
That we're surrounded by the comfort and protection of..
   Am                    G                F            G
The highest powers. In lonely hours. The tears devour you..


(Refrão)
           C                   G
I want to stand with you on a mountain.
           F                     G
I want to bathe with you in the sea.
           C               G
I want to lay like this forever.
           F                 G
Until the sky falls down on me...


F             G
Oh can't you see it baby?
F                                   G                                F
You don't have to close your eyes 'cos it's standing right before you.
              G
All that you need will surely come...


Solo
E|-----------------------------------------------------------------
B|-------------12-13-15-17~--17~-17~-17~-----12-13--12h13p12-------
G|-------12-14-----------------------------------------------14-12-
D|-14-15-----------------------------------------------------------
A|-----------------------------------------------------------------
E|-----------------------------------------------------------------

E|-----------------------------------------------------------------
B|-----------------------------------------------------------------
G|-----------------------------------------------------12-14-12-14-
D|--14-15--14h15p14------------14h15-14-12----12-14-15-------------
A|-------------------15-12-----------------15----------------------
E|-----------------------------------------------------------------

E|--------------------|
B|-12-13-12-13-15-17~-|
G|--------------------|
D|--------------------|
A|--------------------|
E|--------------------|

C                                  G                        F
I'll be your dream, I'll be your wish, I'll be your fantasy.
                                   G                           C
I'll be your hope, I'll be your love, be everything that you need.
                                G                             F G
I'll love you more with every breath truly, madly, deeply do...


(Refrão)
           C                   G
I want to stand with you on a mountain.
           F                     G
I want to bathe with you in the sea.
           C               G
I want to lay like this forever.
           F                 G
Until the sky falls down on me...  (x2)


(C G F G)
Solo Final
E|--------------------------------------------------------
B|-------12-13---------12-13-12~--12-13-15-17--15-13-15---
G|-12-14--------12-12-------------------------------------
D|--------------------------------------------------------
A|-14-15--------------------------------------------------
E|--------------------------------------------------------

E|-----------------------------------------------------------------
B|-12-13-12h13-12--------------------------------------------------
G|----------------14-12---------------------------------12-12-14-12
D|-----------------------15-14-12h14----12-------12h14-------------
A|-----------------------------------15----15----------------------
E|-----------------------------------------------------------------

E|-----------------------------------------------|
B|-----------------------------------------------|
G|-------12-12-14------------12------------------|
D|-12h14----------12h14-12------15-14-14-15------|
A|------------------------------------------15...|
E|-----------------------------------------------|
Otros videos de esta canción
    622 exhibiciones
      • ½ Tono
      • A
      • Bb
      • B
      • C
      • Db
      • D
      • Eb
      • E
      • F
      • F#
      • G
      • Ab
    • Agregar a la lista

    Afinação da cifra

    Afinador online

      Ops (: Contenido disponible solo en portugués.
      OK