Cifra Club

Complaint In The System

Savatage

Cifrado: Principal (guitarra y guitarra eléctrica)
Selo Cifra Club: esta cifra foi revisada para atender aos critérios oficiais da nossa Equipe de Qualidade.
tono: D
E|------------------------|------------------------|----------------------------|
B|-10-10-10-10-10-10-10-10|-10-10-10-10-10-10-10-10|-10-10-10-10-10-10-10-10----|
G|-9--9--9--9--9--9--9--9-|-8--8--8--8--8--8--8--8-|-9--9--9--9--9--9--9--9-----|
D|-7--7--7--7--7--7--7--7-|-7--7--7--7--7--7--7--7-|-7--7--7--7--7--7--7--7-----|
A|------------------------|------------------------|----------------------------|
E|------------------------|------------------------|----------------------------|
 Got a complaint in the sytem..etc..

E|------------------------|-------------------------------------------|---------|
B|-10-10-10-10-10-10-10-10|-------------------------------------------|---------|
G|-8--8--8--8--8--8--8--8-|-------------------------------------------|---------|
D|-7--7--7--7--7--7--7--7-|-------------------------------------------|---------|
A|------------------------|-7-7-7-7---------8-8---5--5--7-------------|-7-7-7-7-|
E|------------------------|-5-5-5-5---------6-6---3--3--5-------------|-5-5-5-5-|
                          Welcome to the system heres the situation   Its a

E|-----------------------------------|---------------------------------------|--|
B|-----------------------------------|---------------------------------------|--|
G|-----------------------------------|---------------------------------------|--|
D|-----------------------------------|---------------------------------------|--|
A|-------8-8------5-5--7-------------|--7-7-7-7----8--8---5--5--7------------|--|
E|-------6-6------3-3--5-------------|--5-5-5-5----6--6---3--3--5------------|--|
 bit confusing welcome to the maze  Everybody sees what everybody wants to

E|-----------------------------------|------------------------------------------|
B|-----------------------------------|------------------------------------------|
G|-----------------------------------|------------------------------------------|
D|-----------------------------------|------------------------------------------|
A|---7-7-7-7--8-8---5--5--7----------|--7-7-7-7-------8--8----5--5---7----------|
E|---5-5-5-5--6-6---3--3--5----------|--5-5-5-5-------6--6----3--3---5----------|
  Everyone avoids every other gaze  I will be your mentor I'll be your

E|--------|------------------------------------------|--------------------------|
B|--------|------------------------------------------|--------------------------|
G|--------|------------------------------------------|--------------------------|
D|--------|------------------------------------------|--------------------------|
A|--------|--7-7-7-7-----8--8---5--5--7--------------|----7-7-7-7---------8--8--|
E|--------|--5-5-5-5-----6--6---3--3--5--------------|----5-5-5-5---------6--6--|
 advisor  I'll do what I do and you will look away   Forgetting what you see

E|----------------------------|-------------------------------------------------|
B|----------------------------|-------------------------------------------------|
G|----------------------------|-------------------------------------------------|
D|----------------------------|-------------------------------------------------|
A|--5--5---7------------------|---7-7-7-7-------8--8----5--5---7----------------|
E|--3--3---5------------------|---5-5-5-5-------6--6----3--3---5----------------|
 has always been much wiser  But someone in the back is missing what I say

E|-------------------------------|-------------------------------|--------------|
B|-10-10-10-10-10-10-10-10-------|-10-10-10-10-10-10-10-10-------|-10-10-10-10--|
G|-9--9--9--9--9--9--9--9--------|-8--8--8--8--8--8--8--8--------|-9--9--9--9---|
D|-7--7--7--7--7--7--7--7--------|-7--7--7--7--7--7--7--7--------|-7--7--7--7---|
A|-------------------------------|-------------------------------|--------------|
E|-------------------------------|-------------------------------|--------------|
 Got a complaint in the system   Got a complaint in the system   Got a

E|-------------------------|------------------------------|---------------------|
B|-10-10-10-10-------------|-10-10-10-10-10-10-10-10------|---------------------|
G|-9--9--9--9--------------|-8--8--8--8--8--8--8--8-------|---------------------|
D|-7--7--7--7--------------|-7--7--7--7--7--7--7--7-------|---------------------|
A|-------------------------|------------------------------|--7-7-7-7------------|
E|-------------------------|------------------------------|--5-5-5-5------------|
 complaint in the system   Got a complain in the system   Welcome to the

E|-------------------------------|----------------------------------------------|
B|-------------------------------|----------------------------------------------|
G|-------------------------------|----------------------------------------------|
D|-------------------------------|----------------------------------------------|
A|--8--8----5---5--7-------------|--7--7--7--7---8--8--5--5--7------------------|
E|--6--6----3---3--5-------------|--5--5--5--5---6--6--3--3--5------------------|
 park now we supply amusements   Everybody rides but everybody pays

E|-------------------------------------------------------|----------------------|
B|-------------------------------------------------------|----------------------|
G|-------------------------------------------------------|----------------------|
D|-------------------------------------------------------|----------------------|
A|--7--7--7--7----8---8----5---5---7---------------------|--7--7--7--7----------|
E|--5--5--5--5----6---6----3---3---5---------------------|--5--5--5--5----------|
 What goods causing problems when no one's complaining   What good is a

E|---------------------------|--------------------------------------|-----------|
B|---------------------------|--------------------------------------|-----------|
G|---------------------------|--------------------------------------|-----------|
D|---------------------------|--------------------------------------|-----------|
A|--8--8--5---5---7----------|---7--7--7--7--8--8--5--5---7---------|----7--7---|
E|--6--6--3---3---5----------|---5--5--5--5--6--6--3--3---5---------|----5--5---|
 martyr if no one is saved   Everybody knows us everybody sees us   Every

E|----------------------------------------|-------------------------------------|
B|----------------------------------------|-------------------------------------|
G|----------------------------------------|-------------------------------------|
D|----------------------------------------|-------------------------------------|
A|-7--7----8--8---5--5--7-----------------|--7--7--7--7--8--8---5---5---7-------|
E|-5--5----6--6---3--3--5-----------------|--5--5--5--5--6--6---3---3---5-------|
 single child can tell you where we are   Every politician says that we are

E|---------|----------------------------------------------|---------------------|
B|---------|----------------------------------------------|-10-10-10-10-10-10---|
G|---------|----------------------------------------------|-9--9--9--9--9--9----|
D|---------|----------------------------------------------|-7--7--7--7--7--7----|
A|---------|---7---7--7---7---8--8----5----5--7-----------|---------------------|
E|---------|---5---5--5---5---6--6----3----3--5-----------|---------------------|
 leaving   But in all this time we haven't gone too far  Got a complaint in

E|------------|-------------------------------|---------------------------------|
B|-10-10------|-10-10-10-10-10-10-10-10-------|-10-10-10-10-10-10-10-10---------|
G|-9--9-------|-8--8--8--8--8--8--8--8--------|-9--9--9--9--9--9--9--9----------|
D|-7--7-------|-7--7--7--7--7--7--7--7--------|-7--7--7--7--7--7--7--7----------|
A|------------|-------------------------------|---------------------------------|
E|------------|-------------------------------|---------------------------------|
 the system   Got a complaint in the system   Got a complaint in the sytem

E|------------------------------|-----------------------------------------------|
B|-10-10-10-10-10-10-10-10------|-----------------------------------------------|
G|-8--8--8--8--8--8--8--8-------|-----------------------------------------------|
D|-7--7--7--7--7--7--7--7-------|------7------------------------5---------------|
A|------------------------------|------5--------------7---------3--------5------|
E|------------------------------|---------------------5------------------3------|
 Got a complaint in the system You should understand it its not underhanded

E|---------------------------------|---------------------|----------------------|
B|---------------------------------|---------------------|----------------------|
G|---------------------------------|---------------------|----------------------|
D|-------3-------------------------|-2-----0*2-2---------|---------0*2----------|
A|-------1------------3------------|-2---------2------0h2|----------------------|
E|--------------------1------------|-0-0-0-----0-0-0-0---|-0-0-0-0-----0-0-0----|
 Its really quite simple you see

E|------|------------------------------------------------------|----------------|
B|------|------------------------------------------------------|----------------|
G|------|------------------------------------------------------|----------------|
D|------|------7------------------------5----------------------|---3------------|
A|---0h2|------5-------------7----------3-------------5--------|---1------------|
E|-0----|--------------------5------------------------3--------|----------------|
       The right and the wrong of it long and the short of it  Black and the

E|------------------------------------|-----------------------------------------|
B|------------------------------------|-----------------------------------------|
G|------------------------------------|-----------------------------------------|
D|----------------------------8-------|-----11-----------6--------9-------------|
A|---3------------6-----------6-------|-----9------------4--------7-------------|
E|---1------------4-------------------|-----------------------------------------|
 white of it forget the sight of it   It is so much cheaper to be no one's

E|--------|---------------------------|-----------------------|-----------------|
B|--------|---------------------------|-----------------------|-----------------|
G|--------|---------------------------|-----------------------|-----------------|
D|---4----|-------3-------------------|-------------------7--8|-----------------|
A|---2----|-------1-------------------|----7--------7^----5--6|----7------7^----|
E|--------|---------------------------|-0-------0-------------|-0------0--------|
 keeper   Trust me      complaint..

E|-----------------------|--------------------------|---------------------------|
B|-----------------------|--------------------------|---------------------------|
G|-----------------------|--------------------------|---------------------------|
D|-------------------7--8|--------------------------|---------------------------|
A|------7------7^----5--6|----7---9---10---9--10-9-7|---7---9---10---9--10-9-7--|
E|--0-------0------------|--0---0---0----0----------|-0---0---0----0------------|


E|-------------------------|-------------------------|--------------------------|
B|-------------------------|-------------------------|--------------------------|
G|-------------------------|-------------------------|--------------------------|
D|-------------------------|-------------------------|--------------------------|
A|---7---9---10---9--10-9-7|---7---9---10---9--10-9-7|---7---9---10---9--10-9-7-|
E|-0---0---0----0----------|-0---0---0----0----------|-0---0---0----0-----------|
                                                     In the dead of the etc..

E|--------------------------------------------|---------------------------------|
B|--------------------------------------------|---------------------------------|
G|--------------------------------------------|---------------------------------|
D|--------------------------------------------|-----------2--4-5--7-8-9-9-8-9---|
A|--------------------------------------------|-2----5----0--2-3--5-6\7-7-6\7---|
E|--------------------------------------------|-0----3--------------------------|
 play previous bar till the end of the song

E|----------------------|-------------------------------------------------------|
B|----------------------|-------------------------------------------------------|
G|----------------------|-------------------------------------------------------|
D|-9-8-9-9-8-9-9-8-9-9-9|-2-----------------------------------------------------|
A|-7-6\7-7-6\7-7-6\7-7-7|-2-----------------------------------------------------|
E|----------------------|-0-----------------------------------------------------|
Otros videos de esta canción
    3 exhibiciones
      • ½ Tono
      • A
      • Bb
      • B
      • C
      • Db
      • D
      • Eb
      • E
      • F
      • F#
      • G
      • Ab
    • Agregar a la lista

    Afinação da cifra

    Afinador online

      Ops (: Contenido disponible solo en portugués.
      OK