Cifra Club

Edge of Thorns

Savatage

Cifrado: Principal (guitarra y guitarra eléctrica)
Selo Cifra Club: esta cifra foi revisada para atender aos critérios oficiais da nossa Equipe de Qualidade.
tono: E
afinação:
 D-A-D-G-B-e


INTRODUÇÃO 1ªparte (junto com o piano)

e|----------------------|
B|----------------------|
G|----------------------|
D|------12--------------|
A|------12--------------|
D|------12--------------| (4 vezes)


 introduçao 2ª parte  (riff 1.1)
e|-------------------------------------------------------------|
B|-------------------------------------------------------------|
G|-------------------------------------------------------------|
D|--12--12---------------------10--10--------------------------|
A|--12--12---------------------10--10--------------------------| (3 vezes)
D|--12--12--0-0-0-0-0-0--------10--10--0-0-0-0-0-0-------------|
           | ......pm.......|         |.....pm.........|

 daí   (riff 1.2)
e|---------------------------------------------------------------|
B|---------------------------------------------------------------|
G|---------------------------------------------------------------|
D|-----8-----15---14---------------------------------------------|
A|-----8-----15---14---------------------------------------------|
D|-----8-----15---14---------------------------------------------|


e então começa o vocal

vai tocando o riff 1.1 até


e|--------------------------------------------------------------------------------------|
B|--------------------------------------------------------------------------------------|
G|--------------------------------------------------------------------------------------|
D|----5------------------9/10/12----5--0-------8-----10----------------12--10---8-------|
A|----5------------------7/8/ 10----5--0-------8-----10----------------12--10---8-------|
D|----5-----------------------------5--0-------8-----10----------------12--10---8-------|
       a solitary dancer                         i see you all in the edge of thorns
                                                    (o resto do refrão é igual)



but i can think come back to anymore -> e vem o riff 1.1(três vezes) e o riff 1.2

e entra a segunda parte do verso da música q é igualzinho a primeira depois o refrão,
e assim por diante, ainda ñ tirei o solo porque é muito foda.



depois do solo vem aquela parte rápida acompanhada pela batera, antes de entrar no refrão denovo
que é assim


e|---------------------------------------------------------------|
B|---------------------------------------------------------------|
G|---14---13---11---12-------------------------14/\/\/\/---------|
D|---14---13---11---12-----(três vezes) e...---14/\/\/\/\--------|
A|---12---11---9----10-------------------------12/\/\/\/\/------ |
D|---------------------------------------------------------------| 
 
depois cai no refrão.......
Otros videos de esta canción
    90 exhibiciones
      • ½ Tono
      • A
      • Bb
      • B
      • C
      • Db
      • D
      • Eb
      • E
      • F
      • F#
      • G
      • Ab
    • Agregar a la lista

    Afinação da cifra

    Afinador online

      Ops (: Contenido disponible solo en portugués.
      OK