Cifra Club

He Carves His Stone

Savatage

Cifrado: Principal (guitarra y guitarra eléctrica)
Selo Cifra Club: esta cifra foi revisada para atender aos critérios oficiais da nossa Equipe de Qualidade.
tono: F
The main part of the song.

---------0---------------------0|---------0-----------------------|-----------|
-----------0-----------1-----3--|-----------0-----------1-----3---|-----------|
-------0-----0-------0-----2----|-------0-----0-------0-----2---2-|-----------|
-----2---------2---2-----0------|-----2---------2---2-----0-------|-----------|
---2-------------3--------------|---2-------------3---------------|-----------|
-0------------------------------|-0-------------------------------|-----------|


---------0-----------------------|--------------------------------------------|
-----------0-----------1-----3-1-|--------------------------------------------|
-------0-----0-------0-----2---0-|5-5-5-5-5-----------------------------------|
-----2---------2---2-----0-----2-|5-5-5-5-5-----------------------------------|
---2-------------3-------------3-|3-3-3-3-3-------------------8---7---5---7---|
-0-------------------------------|--------------------/-\---0---x---x---x-----|
                Play riff 3 times           He carves his stone

----------------------|---------------------------|---------------------------|
----------------------|---------------------------|---------------------------|
----------------------|---------------------------|---------------------------|
----------------------|-----------3---------------|---------3-----------------|
---3---5---2-3-3-3-2--|-----------1-------3-----3-|---------1-------3-----3---|
-x---x---x-----------3|---0-0-0-0---0-0-0-1-0-0-1-|-0-0-0-0---0-0-0-1-0-0-1---|
                           Well a man's gotta do etc..

-------------------------|------------------------|---------------------------|
-------------------------|------------------------|---------------------------|
-------------------------|------------------------|---------------------------|
----------3--------------|---------3--------------|-----5-----4^-----5--------|
----------1-------3-----3|---------1-------3-----3|---2-----2------2-----2----|
--0-0-0-0---0-0-0-1-0-0-1|-0-0-0-0---0-0-0-1-0-0-1|-0-----0------0-----0---/--|
Otros videos de esta canción
    36 exhibiciones
      • ½ Tono
      • A
      • Bb
      • B
      • C
      • Db
      • D
      • Eb
      • E
      • F
      • F#
      • G
      • Ab
    • Agregar a la lista

    Afinação da cifra

    Afinador online

      Ops (: Contenido disponible solo en portugués.
      OK