Cifra Club

I Believe

Savatage

Cifrado: Principal (guitarra y guitarra eléctrica)
Selo Cifra Club: esta cifra foi revisada para atender aos critérios oficiais da nossa Equipe de Qualidade.
tono: Am
E|E|-----------------------------------------------------------------------------||
                                  
                     I Believe - Savatage (GUITAR)
            
E|E|-----------------------------------------------------------------------------||
Tabbed by: Scotto10

Tuning: All strings down ONE step (D Standard tuning)

Uploaded Dec 19 2019

=============================================================================
                                                                                          
Guitar 1

                      [Intro]

     W                   E  E  E  E  S  S  E  E  E   
D||-------------------|-----------------------7-----|
A||-------------------|--------8-----7h-8p-7-----7--|
F||-------------------|-----------------------------|
C||-------------------|-----9-----9-----------------|
G||-------------------|--7--------------------------|
D||-------------------|--0--------------------------|


  E  E  E  E  S  S  E  E  E     E  E  E  E  S  S  E  E  E   
E|-----------------------7-----|-----------------------5-----|
B|--8-----8-----7h-8p-7-----7--|--------6-----6p-5h-6-----5--|
G|-----------------------------|-----------------------------|
D|-----9-----9--------------9--|-----7-----7-----------------|
A|-----------------------------|--5--------------------------|
E|-----------------------------|-----------------------------|

  E  E  E  E  S  S  E  Q       E  E  E  E  S  S  E  E  E   
E|-----------------------5----|-----------------------7-----|
B|--6-----6-----5h-6p-5-------|--------8-----7h-8p-7-----7--|
G|----------------------------|-----------------------------|
D|-----7-----7----------------|-----9-----9-----------------|
A|----------------------------|--7--------------------------|
E|----------------------------|--0--------------------------|

  E  E  E  E  S  S  E  E  E     E  E  E  E  S  S  E  E  E   
E|-----------------------7-----|-----------------------5-----|
B|--8-----8-----7h-8p-7-----7--|--------6-----6p-5h-6-----5--|
G|-----------------------------|-----------------------------|
D|-----9-----9--------------9--|-----7-----7-----------------|
A|-----------------------------|--5--------------------------|
E|-----------------------------|-----------------------------|

  E  E  E  E  S  S  E  E   E     E   E  E  E    Q       E  E  E  E   E  E   
E|-----------------------5p--0--|------------9---------|-----------4---------|
B|--6-----6-----5h-6p-5--6---| L--|------------9h--10----|-----------5p--4--5--|
G|------------------------------|---------9------------|--------6------------|
D|-----7-----7------------------|-----11---------------|-----6---------------|
A|------------------------------|--9-------------------|--4------------------|
E|------------------------------|----------------------|---------------------|

  E   E  E  E    Q       E  E  E  E   E  E     E  E  E  E   Q     
E|------------9---------|-----------4---------|-----------7--------|
B|------------9h--10----|-----------5p--4--5--|-----------7h--8----|
G|---------9------------|--------6------------|--------7-----------|
D|-----11---------------|-----6---------------|-----9--------------|
A|--9-------------------|--4------------------|--7-----------------|
E|----------------------|---------------------|--------------------|

  E  E  E  E  Q       E  E  E  E  Q       E  E  E  E  Q     
E|-----------2-------|-----------5-------|-----------4-------|
B|-----------3--3----|-----------6-------|-----------4--5----|
G|--------4-----4----|--------7-----7----|--------6----------|
D|-----4-------------|-----7-------------|-----6-------------|
A|--2----------------|--5----------------|--4----------------|
E|-------------------|-------------------|-------------------|

  E   E  E  E    Q       E  E  E  E   E  E     E   E  E  E    Q     
E|------------9---------|-----------4---------|------------9---------|
B|------------9h--10----|-----------5p--4--5--|------------9h--10----|
G|---------9------------|--------6------------|---------9------------|
D|-----11---------------|-----6---------------|-----11---------------|
A|--9-------------------|--4------------------|--9-------------------|
E|E|E|----------------------|---------------------|----------------------|

  E  E  E  E   E  E     E  E  E  E   Q       E  E  E  E  Q     
E|-----------4---------|-----------7--------|-----------2--2----|
B|-----------5p--4--5--|-----------7h--8----|-----------3--3----|
G|--------6------------|--------7-----------|--------4----------|
D|-----6---------------|-----9--------------|-----4-------------|
A|--4------------------|--7-----------------|--2----------------|
E|---------------------|--------------------|-------------------|

  E  E  E  E  Q       E  E  E  E  Q       E   E  E  E    Q     
E|-----------5-------|-----------4-------|------------9---------|
B|-----------6-------|-----------4--5----|------------9h--10----|
G|--------7-----7----|--------6----------|---------9------------|
D|-----7-------------|-----6-------------|-----11---------------|
A|--5----------------|--4----------------|--9-------------------|
E|-------------------|-------------------|----------------------|

  E  E  E  E   E  E     E   E  E  E    Q       E  E  E  E   E  E   
E|-----------4---------|------------9---------|-----------4---------|
B|-----------5p--4--5--|------------9h--10----|-----------5p--4--5--|
G|--------6------------|---------9------------|--------6------------|
D|-----6---------------|-----11---------------|-----6---------------|
A|--4------------------|--9-------------------|--4------------------|
E|---------------------|----------------------|---------------------|

  E  E  E  E   Q       E  E  E  E  Q       E  E  E  E  Q     
E|-----------7--------|-----------2-------|-----------5-------|
B|-----------7h--8----|-----------3--3----|-----------6-------|
G|--------7-----------|--------4-----4----|--------7-----7----|
D|-----9--------------|-----4-------------|-----7-------------|
A|--7-----------------|--2----------------|--5----------------|
E|--------------------|-------------------|-------------------|

E|------------5------------|
  E  E  E  E  Q       H             Q      Q      Q      Q    Q     
E|-----------4-------|-----------|-----------------------------------|
B|-----------4--5----|--| L--------|-----------------------------------|
G|--------6----------|-----------|--4| g6----4g6----4g6----4g6----4----|
D|-----6-------------|-----------|--4| g6----4g6----4g6----4g6----4----|
A|--4----------------|-----------|----4------4------4------4----4----|
E|-------------------|-----------|-----------------------------------|

E|------------5------------|
    Q      Q      Q      Q    Q       W                 
E|-----------------------------------|-------------------|
B|-----------------------------------|-------------------|
--4g6----4g6----4g6----4g6----4----|-------------------|
--4g6----4g6----4g6----4g6----4----|-------------------|
E|----4------4------4------4----4----|-------------------|
B|-----------------------------------|-------------------|


                      [Intro solo]

                             SH                         
  H        E  E   E  E       H         E   S S S S S S  
E|------------------------|----------------------0-------|
B|------------------------|--8b--------8b--6-8---9-5-7-|
G|--------------9--11--9--|------------------------------|
D|------------------------|------------------------------|
A|------------------------|------------------------------|
E|------------------------|------------------------------|

E|---3--|
  S S S S E  S  E.    S  S E  S   S  S     Q.       E    S   S  S S  S  S  S S  
E|---------------------------------------|--11b------11b--11br-9----9------------|
B|--7-5-7-9-| L--9-12br---9-12-L--9h-12p-9-|-----------------------12---12b-9----9-|
G|--------8------------------------------|----------------------------------11---|
D|---------------------------------------|---------------------------------------|
A|---------------------------------------|---------------------------------------|
E|---------------------------------------|---------------------------------------|

   S S  S  S  E     S  S S  S S  S   S S E   
E|--------------------------------------------|
B|--------------------------------------------|
G|--11-9-11b-9-11brb--9-----------------------|
D|----------------------11-9----9-------------|
A|---------------------------11---11s-10-9-7--|
E|--------------------------------------------|


                     PM  PMPM  PMPM  PM 
  E   E  Q       S S S   S S   S S   S  
E|---------------------------------------|
B|---------------------------------------|
G|---------------------------------9--11-|
D|---------------------------9--11-------|
A|--9b--7--9brb--------9--11-------------|
E|---------------------------------------|

E|--3-| |--3--|  |--3-|  |-----5----|
  S  S  S  S S  S S  S S   S  S  S  S  S S  S  S S  S  S  
E|----------------------------------------------12-9-12-14-|
B|------------------------------------9-12-9---------------|
G|----11b-9----9---------9h-12p-9-11b--------11------------|
D|----------11---11-9-11-----------------------------------|
A|---------------------------------------------------------|
E|---------------------------------------------------------|

E|--3--| |--3--|
   S  S  S  S  S  S  E    E   E.    S  E   E   
E|--14-14-14-14-14-14-14b---| L--14b---12-14--12--|
B|----------------------------------------------|
G|----------------------------------------------|
D|----------------------------------------------|
A|----------------------------------------------|
E|----------------------------------------------|


                                                  [Verse]

   E   S   S  S  S  S   S  S   S  S   S  S  S  E      H        H          
E|--11--12p-11----11-12p-11-12p-11-14p-12-11-12-11--|--11--------| L~--------|
B|-------------14-----------------------------------|----------------------|
G|--------------------------------------------------|----------------------|
D|--------------------------------------------------|----------------------|
A|--------------------------------------------------|----------------------|
E|--------------------------------------------------|----------------------|


                          PM        PM PM PM        PM PM  
  H        E  E  Q        E  S S E  S  S  E  S S E  S  S   
--L--------L-----------|----------------------------------|
E|-----------------------|----------------------------------|
B|-----------------------|-----4-2-4-----------4-2-4--------|
G|-----------------------|-----4-2-4-----------4-2-4--------|
D|-----------------------|----------------------------------|
A|-----------------9\----|--4---------4--4--4---------4--4--|


  PM        PM PM               PM        PM PM PM        PM PM  
  E  S S E  S  S  Q    Q        E  S S E  S  S  E  S S E  S  S   
E|-----------------------------|----------------------------------|
B|-----------------------------|----------------------------------|
G|-----4-2-4-------------------|-----4-2-4-----------4-2-4--------|
D|-----4-2-4-------------------|-----4-2-4-----------4-2-4--------|
A|-----------------------------|----------------------------------|
E|--4---------4--4--0----2~----|--4---------4--4--4---------4--4--|


  PM        PM              PM        PM PM PM        PM PM  
  E  S S E  E  Q    Q       E  S S E  S  S  E  S S E  S  S   
E|-------------------------|----------------------------------|
B|-------------------------|----------------------------------|
G|-----4-2-4-----4----6----|-----4-2-4-----------4-2-4--------|
D|-----4-2-4-----4----6----|-----4-2-4-----------4-2-4--------|
A|---------------2----4----|----------------------------------|
E|--4---------4------------|--4---------4--4--4---------4--4--|


                          [Chorus]
  PM        PM                                                                 
  E  S S E  E  Q    Q       Q    E  E  Q    E  E     E  E  E  E  E  E   E  E   
E|-------------------------|------------------------|---------------------------|
B|-------------------------|------------------------|---------------------------|
G|-----4-2-4-----6----4----|--6-------4--6----| L-----|-----4--6--------9--11--9--|
D|-----4-2-4-----6----4----|--6-------4--6----| L-----|-----4--6--------9--11--9--|
A|---------------4----2----|--4-------2--4----| L-----|-----2--4--------7---9--7--|
E|--4---------4------------|------------------------|---------------------------|


                                               PM                           
  Q    E  E  Q    Q        E  E  Q    E  E  E  E     Q    E  E  Q    E  E   
E|------------------------|-------------------------|------------------------|
B|------------------------|-------------------------|------------------------|
G|--6-------4--6----| L\----|-----4--4----------------|--6-------4--6----L-----|
D|--6-------4--6----| L\----|-----4--4----x--4--4-----|--6-------4--6----L-----|
A|--4-------2--4----| L\----|--x--2--2----x--4--4-----|--4-------2--4----L-----|
E|------------------------|----------------2--2--0--|------------------------|

  E  E  E  E  E  E   E  E     Q    E  E  Q    Q        E  E  Q    E  E  E  E   
E|---------------------------|------------------------|-------------------------|
B|---------------------------|------------------------|-------------------------|
G|-----4--6--------9--11--9--|--6-------4--6----| L\----|-----4--4----------------|
D|-----4--6--------9--11--9--|--6-------4--6----| L\----|-----4--4----x--4--4-----|
A|-----2--4--------7---9--7--|--4-------2--4----| L\----|--x--2--2----x--4--4-----|
E|---------------------------|------------------------|----------------2--2--0--|


[Verse]

  PM PM PM    PM PM PM         PM PM    PM         PM              
  E  S  S  E  S  S  E  S  S E  S  S     E  S  S E  S  S Q    Q     
E|-------------------------------------|----------------------------|
B|-------------------------------------|----------------------------|
G|-----------------------4p-2-4--------|-----4p-2-4-------4----6----|
D|-----------6-----------4p-2-4--------|-----4p-2-4-------4----6----|
A|-----------6-------------------------|------------------2----4----|
E|--4--4--4-----4--4--4----------4--4--|--4----------4--------------|


  PM        PM PM PM        PM PM    PM        PM PM             
  E  S S E  S  S  E  S S E  S  S     E  S S E  S  S  Q    Q      
E|----------------------------------|-----------------------------|
B|----------------------------------|-----------------------------|
G|-----4-2-4-----------4-2-4--------|-----4-2-4-------------------|
D|-----4-2-4-----------4-2-4--------|-----4-2-4-------------------|
A|----------------------------------|-----------------------------|
E|--4---------4--4--4---------4--4--|--4---------4--4--0----2~----|


  PM        PM PM PM        PM PM    PM        PM            
  E  S S E  S  S  E  S S E  S  S     E  S S E  E  Q    Q     
E|----------------------------------|-------------------------|
B|----------------------------------|-------------------------|
G|-----4-2-4-----------4-2-4--------|-----4-2-4-----4----6----|
D|-----4-2-4-----------4-2-4--------|-----4-2-4-----4----6----|
A|----------------------------------|---------------2----4----|
E|--4---------4--4--4---------4--4--|--4---------4------------|


  PM         PM PM PM         PM PM    PM         PM            
  E  S  S E  S  S  E  S  S E  S  S     E  S  S E  E  Q    Q     
E|------------------------------------|--------------------------|
B|------------------------------------|--------------------------|
G|-----4p-2-4-----------4p-2-4--------|-----4p-2-4-----6----4----|
D|-----4p-2-4-----------4p-2-4--------|-----4p-2-4-----6----4----|
A|------------------------------------|----------------4----2----|
E|--4----------4--4--4----------4--4--|--4----------4------------|


                       PM PM    PM         PM PM PM         PM   
   Q    E  E  E  E  E  S  S     E  S  S E  S  S  E  S  S E  E    
E|-----------------------------|----------------------------------|
B|-----------------------------|----------------------------------|
G|--11-------6--| L--6--6--------|-----6p-4-6-----------6p-4-6------|
D|--11-------6--| L--6--6--------|-----6p-4-6-----------6p-4-6------|
A|---9-------4--| L--4--4--4--4--|--4----------4--4--4----------4/--|
E|-----------------------------|----------------------------------|


                      PM PM    PM         PM PM PM         PM PM  
  Q    E  E  E  E  E  S  S     E  S  S E  S  S  E  S  S E  S  S   
E|----------------------------|------------------------------------|
B|----------------------------|------------------------------------|
G|--9-------4--| L--4--4--------|-----4p-2-4-----------4p-2-4--------|
D|--9-------4--| L--4--4--------|-----4p-2-4-----------4p-2-4--------|
A|--7-------2--| L--2--2--2--2--|--2----------2--2--2----------2--2--|
E|----------------------------|------------------------------------|


                       PM PM    PM         PM PM PM         PM   
   Q    E  E  E  E  E  S  S     E  S  S E  S  S  E  S  S E  E    
E|-----------------------------|----------------------------------|
B|-----------------------------|----------------------------------|
G|--11-------6--| L--6--6--------|-----6p-4-6-----------6p-4-6------|
D|--11-------6--| L--6--6--------|-----6p-4-6-----------6p-4-6------|
A|---9-------4--| L--4--4--4--4--|--4----------4--4--4----------4/--|
E|-----------------------------|----------------------------------|


                      PM PM    PM         PM PM PM         PM PM  
  Q    E  E  E  E  E  S  S     E  S  S E  S  S  E  S  S E  S  S   
E|----------------------------|------------------------------------|
B|----------------------------|------------------------------------|
G|--9-------4--| L--4--4--------|-----4p-2-4-----------4p-2-4--------|
D|--9-------4--| L--4--4--------|-----4p-2-4-----------4p-2-4--------|
A|--7-------2--| L--2--2--2--2--|--2----------2--2--2----------2--2--|
E|----------------------------|------------------------------------|


[Chorus]

  E  E   E  E  E  E  Q       E  E  S S E   E   S  S  E  E   
E|--------------------------|--------------------------------|
B|--------------------------|--------------------------------|
G|--6--| L\--4--6--L--9-------|-----6----4-L--12--12-12-11--9--|
D|--6--| L\--4--6--L--9-------|-----6----4-L-------------------|
A|--4--| L\--2--4--L--7-------|-----4----2-L--10--10-10--9--7--|
E|--------------------------|--------------------------------|

  E  E   E  E  E  E  Q       E  E  S S E   E   S  S  E  E   
E|--------------------------|--------------------------------|
B|--------------------------|--------------------------------|
G|--6--| L\--4--6--L--9-------|-----6----4-L--12--12-12-11--9--|
D|--6--| L\--4--6--L--9-------|--x--6----4-L-------------------|
A|--4--| L\--2--4--L--7-------|--x--4----2-L--10--10-10--9--7--|
E|--------------------------|--------------------------------|

  E  E   E  E  E  E  Q       E  E  S S E   E   S  S  E  E   
E|--------------------------|--------------------------------|
B|--------------------------|--------------------------------|
G|--6--| L\--4--6--L--9-------|-----6----4-L--12--12-12-11--9--|
D|--6--| L\--4--6--L--9-------|--x--6----4-L-------------------|
A|--4--| L\--2--4--L--7-------|--x--4----2-L--10--10-10--9--7--|
E|--------------------------|--------------------------------|

  E  E   E  E  E  E  Q       E  E  S S E   E   S  S  E  E   
E|--------------------------|--------------------------------|
B|--------------------------|--------------------------------|
G|--6--| L\--4--6--L--9-------|-----6----4-L--12--12-12-11--9--|
D|--6--| L\--4--6--L--9-------|--x--6----4-L-------------------|
A|--4--| L\--2--4--L--7-------|--x--4----2-L--10--10-10--9--7--|
E|--------------------------|--------------------------------|


[Verse]

  PM PM PM    PM PM PM         PM PM    PM         PM              
  E  S  S  E  S  S  E  S  S E  S  S     E  S  S E  S  S Q    Q     
E|-------------------------------------|----------------------------|
B|-------------------------------------|----------------------------|
G|-----------------------4p-2-4--------|-----4p-2-4-------4----6----|
D|-----------6-----------4p-2-4--------|-----4p-2-4-------4----6----|
A|-----------6-------------------------|------------------2----4----|
E|--4--4--4-----4--4--4----------4--4--|--4----------4--------------|


  PM        PM PM PM        PM PM    PM        PM PM             
  E  S S E  S  S  E  S S E  S  S     E  S S E  S  S  Q    Q      
E|----------------------------------|-----------------------------|
B|----------------------------------|-----------------------------|
G|-----4-2-4-----------4-2-4--------|-----4-2-4-------------------|
D|-----4-2-4-----------4-2-4--------|-----4-2-4-------------------|
A|----------------------------------|-----------------------------|
E|--4---------4--4--4---------4--4--|--4---------4--4--0----2~----|


  PM        PM PM PM        PM PM    PM        PM            
  E  S S E  S  S  E  S S E  S  S     E  S S E  E  Q    Q     
E|----------------------------------|-------------------------|
B|----------------------------------|-------------------------|
G|-----4-2-4-----------4-2-4--------|-----4-2-4-----4----6----|
D|-----4-2-4-----------4-2-4--------|-----4-2-4-----4----6----|
A|----------------------------------|---------------2----4----|
E|--4---------4--4--4---------4--4--|--4---------4------------|


  PM         PM PM PM         PM PM    PM         PM            
  E  S  S E  S  S  E  S  S E  S  S     E  S  S E  E  Q    Q     
E|------------------------------------|--------------------------|
B|------------------------------------|--------------------------|
G|-----4p-2-4-----------4p-2-4--------|-----4p-2-4-----6----4----|
D|-----4p-2-4-----------4p-2-4--------|-----4p-2-4-----6----4----|
A|------------------------------------|----------------4----2----|
E|--4----------4--4--4----------4--4--|--4----------4------------|


[Chorus]

  Q    E  E  Q    E  E     E  E  E  E  E  E   E  E     Q    E  E  Q    Q      
E|------------------------|---------------------------|------------------------|
B|------------------------|---------------------------|------------------------|
G|--6-------4--6----| L-----|-----4--6--------9--11--9--|--6-------4--6----L\----|
D|--6-------4--6----| L-----|-----4--6--------9--11--9--|--6-------4--6----L\----|
A|--4-------2--4----| L-----|-----2--4--------7---9--7--|--4-------2--4----L\----|
E|------------------------|---------------------------|------------------------|


                      PM                                                       
  E  E  Q    E  E  E  E     Q    E  E  Q    E  E     E  E  E  E  E  E   E  E   
E|-------------------------|------------------------|---------------------------|
B|-------------------------|------------------------|---------------------------|
G|-----4--4----------------|--6-------4--6----| L-----|-----4--6--------9--11--9--|
D|-----4--4----x--4--4-----|--6-------4--6----| L-----|-----4--6--------9--11--9--|
A|--x--2--2----x--4--4-----|--4-------2--4----| L-----|-----2--4--------7---9--7--|
E|----------------2--2--0--|------------------------|---------------------------|

  Q    E  E  Q    Q        E  E  Q    E  E  E  E   
E|------------------------|-------------------------|
B|------------------------|-------------------------|
G|--6-------4--6----| L\----|-----4--4----------------|
D|--6-------4--6----| L\----|-----4--4----x--4--4-----|
A|--4-------2--4----| L\----|--x--2--2----x--4--4-----|
E|------------------------|----------------2--2--0--|


                       PM PM    PM         PM PM PM         PM   
   Q    E  E  E  E  E  S  S     E  S  S E  S  S  E  S  S E  E    
E|-----------------------------|----------------------------------|
B|-----------------------------|----------------------------------|
G|--11-------6--| L--6--6--------|-----6p-4-6-----------6p-4-6------|
D|--11-------6--| L--6--6--------|-----6p-4-6-----------6p-4-6------|
A|---9-------4--| L--4--4--4--4--|--4----------4--4--4----------4/--|
E|-----------------------------|----------------------------------|


                      PM PM    PM         PM PM PM         PM PM  
  Q    E  E  E  E  E  S  S     E  S  S E  S  S  E  S  S E  S  S   
E|----------------------------|------------------------------------|
B|----------------------------|------------------------------------|
G|--9-------4--| L--4--4--------|-----4p-2-4-----------4p-2-4--------|
D|--9-------4--| L--4--4--------|-----4p-2-4-----------4p-2-4--------|
A|--7-------2--| L--2--2--2--2--|--2----------2--2--2----------2--2--|
E|----------------------------|------------------------------------|


                       PM PM    PM         PM PM PM         PM   
   Q    E  E  E  E  E  S  S     E  S  S E  S  S  E  S  S E  E    
E|-----------------------------|----------------------------------|
B|-----------------------------|----------------------------------|
G|--11-------6--| L--6--6--------|-----6p-4-6-----------6p-4-6------|
D|--11-------6--| L--6--6--------|-----6p-4-6-----------6p-4-6------|
A|---9-------4--| L--4--4--4--4--|--4----------4--4--4----------4/--|
E|-----------------------------|----------------------------------|


                      PM PM    PM         PM PM PM         PM PM  
  Q    E  E  E  E  E  S  S     E  S  S E  S  S  E  S  S E  S  S   
E|----------------------------|------------------------------------|
B|----------------------------|------------------------------------|
G|--9-------4--| L--4--4--------|-----4p-2-4-----------4p-2-4--------|
D|--9-------4--| L--4--4--------|-----4p-2-4-----------4p-2-4--------|
A|--7-------2--| L--2--2--2--2--|--2----------2--2--2----------2--2--|
E|----------------------------|------------------------------------|


[Chorus]

  E  E   E  E  E  E  Q       E  E  S S E   E   S  S  E  E   
E|--------------------------|--------------------------------|
B|--------------------------|--------------------------------|
G|--6--| L\--4--6--L--9-------|-----6----4-L--12--12-12-11--9--|
D|--6--| L\--4--6--L--9-------|-----6----4-L-------------------|
A|--4--| L\--2--4--L--7-------|-----4----2-L--10--10-10--9--7--|
E|--------------------------|--------------------------------|

  E  E   E  E  E  E  Q       E  E  S S E   E   S  S  E  E   
E|--------------------------|--------------------------------|
B|--------------------------|--------------------------------|
G|--6--| L\--4--6--L--9-------|-----6----4-L--12--12-12-11--9--|
D|--6--| L\--4--6--L--9-------|--x--6----4-L-------------------|
A|--4--| L\--2--4--L--7-------|--x--4----2-L--10--10-10--9--7--|
E|--------------------------|--------------------------------|


[Guitar solo]

E|----3----|
   Q.       E    E   E   E    E    E    
E|---------------------------------------|
B|---------------------------------------|
G|--10b------10b--10b-----10b--10b--10b--|
D|---------------------------------------|
A|---------------------------------------|
E|---------------------------------------|

E|----3----| |-----3-----|     |-----3----|    |-----3-----|
   E    E    E     E     E     E     E     E    E    E     E     E     
E|----------------------------------------------------------------------|
B|----------------------------------------------------------------------|
G|--10b--10b--10pb--10pb--10pb--10pb--10pb--10b--10b--10pb--10pb--10br--|
D|----------------------------------------------------------------------|
A|----------------------------------------------------------------------|
E|----------------------------------------------------------------------|

                                         PH                          
E|---3--|
  Q.     S  S  E   E   E  E   E     S    E  S S  S S E.     E  Q     
E|---------------------------------|----------------------------------|
B|-----------12-12b--| L--12--9------|--9-------------------------------|
G|--9------9-------------------11--|----11--| L-9-11-9-9brb---L--L----|
D|---------------------------------|----------------------------------|
A|---------------------------------|----------------------------------|
E|---------------------------------|----------------------------------|

        T            T        T         T       T                  
B|--3--| |--3--|  |--3--|  |---3--|  |---3---|          |--3-|
  S  S  S   S  S  S  S  S  S  S   S  S  S   S   S   Q      S  S S  
E|------------------------------------------------------------------|
B|--9-12-15p-12p-9-12-21p-9-12-15p-12p-9-16p-12h-18p-12br----9-12-9-|
G|------------------------------------------------------------------|
D|------------------------------------------------------------------|
A|------------------------------------------------------------------|
E|------------------------------------------------------------------|

E|----5----| |---3--|  |--3-|
   S S  S S  S S  S S   S  S  S S  S S   S  S   S  S  S   
E|---------------------------------------------------------|
B|---------------------------------------------------------|
G|--11-9-11-9----9-----------------------------------------|
D|------------10---11-9h-11p-9----9------------------------|
A|-----------------------------10---11-9h-11p-9h-10-11-10h-|
E|---------------------------------------------------------|


                              PM PM                                         
   S S  S  S E   S S E   Q    S  S     E   S E  S  E   S  S S  S S  S S  S  
E|------------------------------------|------------------9---------9---------|
B|------------------------------9--9--|--9-----9--| L--------12-9-12---12-9-12-|
G|------------------------------9--9--|--9-----9--| L-11b----------------------|
D|----------------11-9-9--11----------|-----11-------------------------------|
A|--11---10-11------------------------|--------------------------------------|
E|------------------------------------|--------------------------------------|

                                                                PH  PH       
E|--3-|
   H            E   E  S  S S  E      S S  E   E  E  S  S E     S   S  S  S  
E|----------------------------------|-----------------------------------------|
B|--12brb---------| L--12--9----9-----|-----------------------------------------|
G|-------------------------11---11--|--11-9-11~--| L--L--9-11----11-9-11-11-|
D|----------------------------------|-----------------------------------------|
A|----------------------------------|-----------------------------------------|
E|----------------------------------|-----------------------------------------|

    PH     PH   PH     PH    PH    PH   PH           
E|-----3----|
    E      E    E      E     E     E    E  E   S  S  
E|----------------------------------------------------|
B|----------------------------------------------------|
G|--9b--11--9b--11--11--10--9--| L--11p-9-|
D|----------------------------------------------------|
A|----------------------------------------------------|
E|----------------------------------------------------|

   S S  S  S   S  S  S S  S  S  E    Q        E  E   E  E  E  E  Q     
E|-------------------------------------------|--------------------------|
B|-------------------------------------------|--------------------------|
G|-----9-------------------------------------|--6--| L\--4--6--L--9-------|
D|--11---11p-9h-11p-9----9-------------------|--6--| L\--4--6--L--9-------|
A|--------------------10---11p-9-11b---------|--4--| L\--2--4--L--7-------|
E|------------------------------------11\----|--------------------------|

  E  E  S S E   E   S  S  E  E     E  E   E  E  E  E  Q     
E|--------------------------------|--------------------------|
B|--------------------------------|--------------------------|
G|-----6----4-| L--12--12-12-11--9--|--6--L\--4--6--L--9-------|
D|--x--6----4-| L-------------------|--6--L\--4--6--L--9-------|
A|--x--4----2-| L--10--10-10--9--7--|--4--L\--2--4--L--7-------|
E|--------------------------------|--------------------------|


                                [Bridge]

                                   PM PM PM                
  E  E  S S E   E   S  S  E  E     E  E  E  E  Q     Q     
E|--------------------------------|--------------5\---------|
B|--------------------------------|-----------2--| L\---------|
G|-----6----4-| L--12--12-12-11--9--|--------------------6----|
D|--x--6----4-| L-------------------|--------------------6----|
A|--x--4----2-| L--10--10-10--9--7--|--4--4--4-----------4----|
E|--------------------------------|--2--2--2----------------|


               PM PM PM                                                        
  E  E  E   E  E  E  E  E     Q     Q    E  E  E   E     H        E  E   Q     
E|-----4---------------------|--5\------------4---------|-----------------------|
B|-----5--5\--------------2--|--| L\------------5--5\-----|-----------------------|
--L-----6\-----------------|--------6----L-----6\-----|--9--------L--L\--4----|
--L------------------------|--------6----L------------|--9--------L--L\--4----|
--L------------4--4--4-----|--------4----L------------|--7--------L------2----|
E|---------------2--2--2-----|--------------------------|-----------------------|


                                  PM PM            PM  PM  PM                  
  H        H           Q     Q    E  E  E  E       E   E   E   E   Q     Q     
E|E|--------------------|--------------------------|------------------------------|
B|-----------6--------|--6\----------------------|------------------10\---------|
--L--------7--------|--7\----6----------6--L/--|--11---------------------6----|
--L--------6--------|--------6-------6--6--L/--|--11--11--11--11---L\----6----|
--L--------5--------|--------4----4--4--4--L---|---9---9---9-------------4----|
E|--------------------|--------------------------|------------------------------|


  PM            PM  PM  PM                                  
  E  E  E   E   E   E   E   E      Q     Q    E  E  E   E   
E|-----4-------------------------|---------------------------|
B|-----5--5\---------------------|--10\----------------------|
--L-----6\-----11--------------|---------6----L--6--6\-----|
--L------------11--11--11--11--|---L\----6----L--6--6\-----|
E|--4-------------9---9---9------|---------4----| L--4---------|
B|-------------------------------|---------------------------|

  H        E  E   Q       H        H           Q     E  E  E  E  E  E   
E|-----------------------|--------------------|--------------------------|
B|--8--------| L--L\-------|-----------6--------|--6\----------------------|
G|--9--------| L--L\--4----|--L--------7--------|--7\----6--------6--------|
D|--9--------| L--L\--4----|--L--------6--------|--6\----6--------6--------|
A|------------------2----|--| L--------5--------|--------4--------4--------|
E|-----------------------|--------------------|--------------------------|

 E|------------5------------|
  E  E  E  E  E  E  E  E             Q      Q      Q      Q    Q     
E|--------------------------|-----|-----------------------------------|
B|--------------------------|-----|-----------------------------------|
G|--6--------6--------6-----|-----|--4| g6----4g6----4g6----4g6----4----|
D|--6--------6--------6-----|-----|--4| g6----4g6----4g6----4g6----4----|
A|--4--------4--------4-----|-----|----4------4------4------4----4----|
E|--------------------------|-----|-----------------------------------|

E|------------5------------| |------------5------------|
    Q      Q      Q      Q    Q         Q      Q      Q      Q    Q     
E|-----------------------------------|-----------------------------------|
B|-----------------------------------|-----------------------------------|
--4g6----4g6----4g6----4g6----4----|--4g6----4g6----4g6----4g6----4----|
--4g6----4g6----4g6----4g6----4----|--4g6----4g6----4g6----4g6----4----|
E|----4------4------4------4----4----|----4------4------4------4----4----|
B|-----------------------------------|-----------------------------------|


[Guitar solo #2 (omitted)]

  E  E.  S E  S E  S E  E     E  E.  S E  S E  S E  E   
E|---------------------------|---------------------------|
B|---------------------------|---------------------------|
G|---------------------------|---------------------------|
D|--6--6---6-6--6-6--6-| L--4--|--6--6---6-6--6-6--6-L--6--|
A|--4--4---4-4--4-4--4-| L--2--|--4--4---4-4--4-4--4-L--4--|
E|---------------------------|---------------------------|

  E  E.  S E  S E  S E  E     E  E.  S E  S E  S E  E   
E|---------------------------|---------------------------|
B|---------------------------|---------------------------|
G|---------------------------|---------------------------|
D|--4--4---4-4--4-4--4-| L--2--|--4--4---4-4--4-4--4-L--4--|
A|--2--2---2-2--2-2--2-| L--0--|--2--2---2-2--2-2--2-L--2--|
E|---------------------------|---------------------------|

  E  E.  S E  S E  S E  E     E  E.  S E  S E  S E  E   
E|---------------------------|---------------------------|
B|---------------------------|---------------------------|
G|---------------------------|---------------------------|
D|--6--6---6-6--6-6--6-| L--4--|--6--6---6-6--6-6--6-L--6--|
A|--4--4---4-4--4-4--4-| L--2--|--4--4---4-4--4-4--4-L--4--|
E|---------------------------|---------------------------|

  E  E.  S E  S E  S E  E     E  E.  S E  S E  S E  E   
E|---------------------------|---------------------------|
B|---------------------------|---------------------------|
G|---------------------------|---------------------------|
D|--4--4---4-4--4-4--4-| L--2--|--4--4---4-4--4-4--4-L--4--|
A|--2--2---2-2--2-2--2-| L--0--|--2--2---2-2--2-2--2-L--2--|
E|---------------------------|---------------------------|

  E  E.  S E  S E  S E  E     E  E.  S E  S E  S E  E   
E|---------------------------|---------------------------|
B|---------------------------|---------------------------|
G|---------------------------|---------------------------|
D|--6--6---6-6--6-6--6-| L--4--|--6--6---6-6--6-6--6-L--6--|
A|--4--4---4-4--4-4--4-| L--2--|--4--4---4-4--4-4--4-L--4--|
E|---------------------------|---------------------------|

  E  E.  S E  S E  S E  E     E  E.  S E  S E  S E  E   
E|---------------------------|---------------------------|
B|---------------------------|---------------------------|
G|---------------------------|---------------------------|
D|--4--4---4-4--4-4--4-| L--2--|--4--4---4-4--4-4--4-L--4--|
A|--2--2---2-2--2-2--2-| L--0--|--2--2---2-2--2-2--2-L--2--|
E|---------------------------|---------------------------|

  E  E.  S E  S E  S E  E     E  E.  S E  S E  S E  E   
E|---------------------------|---------------------------|
B|---------------------------|---------------------------|
G|---------------------------|---------------------------|
D|--6--6---6-6--6-6--6-| L--4--|--6--6---6-6--6-6--6-L--6--|
A|--4--4---4-4--4-4--4-| L--2--|--4--4---4-4--4-4--4-L--4--|
E|---------------------------|---------------------------|

  E  E.  S E  S E  S E  E     E  E.  S E  S E  S E  E   
E|---------------------------|---------------------------|
B|---------------------------|---------------------------|
G|---------------------------|---------------------------|
D|--4--4---4-4--4-4--4-| L--2--|--4--4---4-4--4-4--4-L--4--|
A|--2--2---2-2--2-2--2-| L--0--|--2--2---2-2--2-2--2-L--2--|
E|---------------------------|---------------------------|

  E  E.  S E  S E  S E  E     E  E.  S E  S E  S E  E   
E|---------------------------|---------------------------|
B|---------------------------|---------------------------|
G|---------------------------|---------------------------|
D|--6--6---6-6--6-6--6-| L--4--|--6--6---6-6--6-6--6-L--6--|
A|--4--4---4-4--4-4--4-| L--2--|--4--4---4-4--4-4--4-L--4--|
E|---------------------------|---------------------------|

  E  E.  S E  S E  S E  E     E  E.  S E  S E  S E  E   
E|---------------------------|---------------------------|
B|---------------------------|---------------------------|
G|---------------------------|---------------------------|
D|--4--4---4-4--4-4--4-| L--2--|--4--4---4-4--4-4--4-L--4--|
A|--2--2---2-2--2-2--2-| L--0--|--2--2---2-2--2-2--2-L--2--|
E|---------------------------|---------------------------|

  E  E.  S E  S E  S E  E     E  E.  S E  S E  S E  E   
E|---------------------------|---------------------------|
B|---------------------------|---------------------------|
G|---------------------------|---------------------------|
D|--6--6---6-6--6-6--6-| L--4--|--6--6---6-6--6-6--6-L--6--|
A|--4--4---4-4--4-4--4-| L--2--|--4--4---4-4--4-4--4-L--4--|
E|---------------------------|---------------------------|

  E  E.  S E  S E  S E  E     E  E.  S E  S E  S E  E   
E|---------------------------|---------------------------|
B|---------------------------|---------------------------|
G|---------------------------|---------------------------|
D|--4--4---4-4--4-4--4-| L--2--|--4--4---4-4--4-4--4-L--4--|
A|--2--2---2-2--2-2--2-| L--0--|--2--2---2-2--2-2--2-L--2--|
E|---------------------------|---------------------------|

  E  E.  S E  S E  S E  E     E  E.  S E  S E  S E  E   
E|---------------------------|---------------------------|
B|---------------------------|---------------------------|
G|---------------------------|---------------------------|
D|--6--6---6-6--6-6--6-| L--4--|--6--6---6-6--6-6--6-L--6--|
A|--4--4---4-4--4-4--4-| L--2--|--4--4---4-4--4-4--4-L--4--|
E|---------------------------|---------------------------|

  E  E.  S E  S E  S E  E     E  E.  S E  S E  S E  E   
E|---------------------------|---------------------------|
B|---------------------------|---------------------------|
G|---------------------------|---------------------------|
D|--4--4---4-4--4-4--4-| L--2--|--4--4---4-4--4-4--4-L--4--|
A|--2--2---2-2--2-2--2-| L--0--|--2--2---2-2--2-2--2-L--2--|
E|---------------------------|---------------------------|

  E  E.  S E  S E  S E  E     E  E.  S E  S E  S E  E   
E|---------------------------|---------------------------|
B|---------------------------|---------------------------|
G|---------------------------|---------------------------|
D|--6--6---6-6--6-6--6-| L--4--|--6--6---6-6--6-6--6-L--6--|
A|--4--4---4-4--4-4--4-| L--2--|--4--4---4-4--4-4--4-L--4--|
E|---------------------------|---------------------------|

  E  E.  S E  S E  S E  E     E  E.  S E  S E  S E  E   
E|---------------------------|---------------------------|
B|---------------------------|---------------------------|
G|---------------------------|---------------------------|
D|--4--4---4-4--4-4--4-| L--2--|--4--4---4-4--4-4--4-L--4--|
A|--2--2---2-2--2-2--2-| L--0--|--2--2---2-2--2-2--2-L--2--|
E|---------------------------|---------------------------|


[Interlude]

     PM PM PM PM PM PM PM       PM PM PM PM PM PM PM  
  E  E  E  E  E  E  E  E     E  E  E  E  E  E  E  E   
E|--------------------------|--------------------------|
B|--------------------------|--------------------------|
G|--------------------------|--------------------------|
D|--3-----------------------|--3-----------------------|
A|--1--1--1--1--1--1--1--1--|--1--1--1--1--1--1--1--1--|
E|--------------------------|--------------------------|

     PM PM PM PM PM PM PM       PM PM PM PM PM PM PM  
  E  E  E  E  E  E  E  E     E  E  E  E  E  E  E  E   
E|--------------------------|--------------------------|
B|--------------------------|--------------------------|
G|--------------------------|--------------------------|
D|--2-----------------------|--2-----------------------|
A|--0--0--0--0--0--0--0--0--|--0--0--0--0--0--0--0--0--|
E|--------------------------|--------------------------|


     PM PM PM PM PM PM PM       PM PM PM PM PM PM PM                        
  E  E  E  E  E  E  E  E     E  E  E  E  E  E  E  E     Q.     Q.     Q     
E|--------------------------|--------------------------|---------------------|
B|--------------------------|--------------------------|---------------------|
G|--------------------------|--------------------------|--6------4------6----|
D|--------------------------|--------------------------|--6------4------6----|
A|--6-----------------------|--6-----------------------|--4------2------4----|
E|--4--4--4--4--4--4--4--4--|--4--4--4--4--4--4--4--4--|---------------------|

  E  E  Q    H           Q.     Q.     Q       E  E  Q    H         
E|E|E|----------------------|---------------------|----------------------|
B|E|E|----------------------|---------------------|----------------------|
--L-------------------|--6------4------6----|--L-------------------|
--L-------------------|--6------4------6----|--L-------------------|
--L-------------------|--4------2------4----|--L-------------------|
E|E|----------------------|---------------------|----------------------|


[Guitar solo #3 (omitted)]

  E  E.  S E  S E  S E  E     E  E.  S E  S E  S E  E   
E|---------------------------|---------------------------|
B|---------------------------|---------------------------|
G|---------------------------|---------------------------|
D|--6--6---6-6--6-6--6-| L--4--|--6--6---6-6--6-6--6-L--6--|
A|--4--4---4-4--4-4--4-| L--2--|--4--4---4-4--4-4--4-L--4--|
E|---------------------------|---------------------------|

  E  E.  S E  S E  S E  E     E  E.  S E  S E  S E  E   
E|---------------------------|---------------------------|
B|---------------------------|---------------------------|
G|---------------------------|---------------------------|
D|--4--4---4-4--4-4--4-| L--2--|--4--4---4-4--4-4--4-L--4--|
A|--2--2---2-2--2-2--2-| L--0--|--2--2---2-2--2-2--2-L--2--|
E|---------------------------|---------------------------|

  E  E.  S E  S E  S E  E     E  E.  S E  S E  S E  E   
E|---------------------------|---------------------------|
B|---------------------------|---------------------------|
G|---------------------------|---------------------------|
D|--6--6---6-6--6-6--6-| L--4--|--6--6---6-6--6-6--6-L--6--|
A|--4--4---4-4--4-4--4-| L--2--|--4--4---4-4--4-4--4-L--4--|
E|---------------------------|---------------------------|

  E  E.  S E  S E  S E  E     E  E.  S E  S E  S E  E   
E|---------------------------|---------------------------|
B|---------------------------|---------------------------|
G|---------------------------|---------------------------|
D|--4--4---4-4--4-4--4-| L--2--|--4--4---4-4--4-4--4-L--4--|
A|--2--2---2-2--2-2--2-| L--0--|--2--2---2-2--2-2--2-L--2--|
E|---------------------------|---------------------------|

  E  E.  S E  S E  S E  E     E  E.  S E  S E  S E  E   
E|---------------------------|---------------------------|
B|---------------------------|---------------------------|
G|---------------------------|---------------------------|
D|--6--6---6-6--6-6--6-| L--4--|--6--6---6-6--6-6--6-L--6--|
A|--4--4---4-4--4-4--4-| L--2--|--4--4---4-4--4-4--4-L--4--|
E|---------------------------|---------------------------|

  E  E.  S E  S E  S E  E     E  E.  S E  S E  S E  E   
E|---------------------------|---------------------------|
B|---------------------------|---------------------------|
G|---------------------------|---------------------------|
D|--4--4---4-4--4-4--4-| L--2--|--4--4---4-4--4-4--4-L--4--|
A|--2--2---2-2--2-2--2-| L--0--|--2--2---2-2--2-2--2-L--2--|
E|---------------------------|---------------------------|

  E  E.  S E  S E  S E  E     E  E.  S E  S E  S E  E   
E|---------------------------|---------------------------|
B|---------------------------|---------------------------|
G|---------------------------|---------------------------|
D|--6--6---6-6--6-6--6-| L--4--|--6--6---6-6--6-6--6-L--6--|
A|--4--4---4-4--4-4--4-| L--2--|--4--4---4-4--4-4--4-L--4--|
E|---------------------------|---------------------------|

  E  E.  S E  S E  S E  E     E  E.  S E  S E  S E  E   
E|---------------------------|---------------------------|
B|---------------------------|---------------------------|
G|---------------------------|---------------------------|
D|--4--4---4-4--4-4--4-| L--2--|--4--4---4-4--4-4--4-L--4--|
A|--2--2---2-2--2-2--2-| L--0--|--2--2---2-2--2-2--2-L--2--|
E|---------------------------|---------------------------|

  E  E.  S E  S E  S E  E     E  E.  S E  S E  S E  E   
E|---------------------------|---------------------------|
B|---------------------------|---------------------------|
G|---------------------------|---------------------------|
D|--6--6---6-6--6-6--6-| L--4--|--6--6---6-6--6-6--6-L--6--|
A|--4--4---4-4--4-4--4-| L--2--|--4--4---4-4--4-4--4-L--4--|
E|---------------------------|---------------------------|

  E  E.  S E  S E  S E  E     E  E.  S E  S E  S E  E   
E|---------------------------|---------------------------|
B|---------------------------|---------------------------|
G|---------------------------|---------------------------|
D|--4--4---4-4--4-4--4-| L--2--|--4--4---4-4--4-4--4-L--4--|
A|--2--2---2-2--2-2--2-| L--0--|--2--2---2-2--2-2--2-L--2--|
E|---------------------------|---------------------------|

  E  E.  S E  S E  S E  E     E  E.  S E  S E  S E  E   
E|---------------------------|---------------------------|
B|---------------------------|---------------------------|
G|---------------------------|---------------------------|
D|--6--6---6-6--6-6--6-| L--4--|--6--6---6-6--6-6--6-L--6--|
A|--4--4---4-4--4-4--4-| L--2--|--4--4---4-4--4-4--4-L--4--|
E|---------------------------|---------------------------|

  E  E.  S E  S E  S E  E     E  E.  S E  S E  S E  E   
E|---------------------------|---------------------------|
B|---------------------------|---------------------------|
G|---------------------------|---------------------------|
D|--4--4---4-4--4-4--4-| L--2--|--4--4---4-4--4-4--4-L--4--|
A|--2--2---2-2--2-2--2-| L--0--|--2--2---2-2--2-2--2-L--2--|
E|---------------------------|---------------------------|

  E  E.  S E  S E  S E  E     E  E.  S E  S E  S E  E   
E|---------------------------|---------------------------|
B|---------------------------|---------------------------|
G|---------------------------|---------------------------|
D|--6--6---6-6--6-6--6-| L--4--|--6--6---6-6--6-6--6-L--6--|
A|--4--4---4-4--4-4--4-| L--2--|--4--4---4-4--4-4--4-L--4--|
E|---------------------------|---------------------------|

  E  E.  S E  S E  S E  E     E  E.  S E  S E  S E  E   
E|---------------------------|---------------------------|
B|---------------------------|---------------------------|
G|---------------------------|---------------------------|
D|--4--4---4-4--4-4--4-| L--2--|--4--4---4-4--4-4--4-L--4--|
A|--2--2---2-2--2-2--2-| L--0--|--2--2---2-2--2-2--2-L--2--|
E|---------------------------|---------------------------|

  E  E.  S E  S E  S E  E     E  E.  S E  S E  S E  E   
E|---------------------------|---------------------------|
B|---------------------------|---------------------------|
G|---------------------------|---------------------------|
D|--6--6---6-6--6-6--6-| L--4--|--6--6---6-6--6-6--6-L--6--|
A|--4--4---4-4--4-4--4-| L--2--|--4--4---4-4--4-4--4-L--4--|
E|---------------------------|---------------------------|

  E  E.  S E  S E  S E  E     E  E.  S E  S E  S E  E   
E|---------------------------|---------------------------|
B|---------------------------|---------------------------|
G|---------------------------|---------------------------|
D|--4--4---4-4--4-4--4-| L--2--|--4--4---4-4--4-4--4-L--4--|
A|--2--2---2-2--2-2--2-| L--0--|--2--2---2-2--2-2--2-L--2--|
E|---------------------------|---------------------------|

     PM PM PM PM PM PM PM       PM PM PM PM PM PM PM  
  E  E  E  E  E  E  E  E     E  E  E  E  E  E  E  E   
E|--------------------------|--------------------------|
B|--------------------------|--------------------------|
G|--------------------------|--------------------------|
D|--3-----------------------|--3-----------------------|
A|--1--1--1--1--1--1--1--1--|--1--1--1--1--1--1--1--1--|
E|--------------------------|--------------------------|

     PM PM PM PM PM PM PM       PM PM PM PM PM PM PM  
  E  E  E  E  E  E  E  E     E  E  E  E  E  E  E  E   
E|--------------------------|--------------------------|
B|--------------------------|--------------------------|
G|--------------------------|--------------------------|
D|--2-----------------------|--2-----------------------|
A|--0--0--0--0--0--0--0--0--|--0--0--0--0--0--0--0--0--|
E|--------------------------|--------------------------|


     PM PM PM PM PM PM PM       PM PM PM PM PM PM PM                        
  E  E  E  E  E  E  E  E     E  E  E  E  E  E  E  E     Q.     Q.     Q     
E|--------------------------|--------------------------|---------------------|
B|--------------------------|--------------------------|---------------------|
G|--------------------------|--------------------------|--6------4------6----|
D|--------------------------|--------------------------|--6------4------6----|
A|--6-----------------------|--6-----------------------|--4------2------4----|
E|--4--4--4--4--4--4--4--4--|--4--4--4--4--4--4--4--4--|---------------------|

  E  E  Q    H           Q.     Q.     Q       E  E  Q    H         
E|E|E|----------------------|---------------------|----------------------|
B|E|E|----------------------|---------------------|----------------------|
--L-------------------|--6------4------6----|--L-------------------|
--L-------------------|--6------4------6----|--L-------------------|
--L-------------------|--4------2------4----|--L-------------------|
E|E|----------------------|---------------------|----------------------|

  Q.     Q.     Q       E  E  Q    H           Q.     Q.     Q      
E|---------------------|----------------------|---------------------| |
B|---------------------|----------------------|---------------------| |
G|--6------4------6----|--| L-------------------|--6------4------6----||
D|--6------4------6----|--| L-------------------|--6------4------6----||
A|--4------2------4----|--| L-------------------|--4------2------4----||
E|---------------------|----------------------|---------------------| |



=============================================================================
=============================================================================


Guitar 2


  *Guitar 2 enters at  00:59 seconds


  W                   Q    E  E  Q    E  E     S S E  E  E   E  E   E  E   
d||-------------------|------------------------|-----------------------------|
A||-------------------|------------------------|-----------------------------|
F||-------------------|--6-------4--6----L-----|--x-x-4--6-----11--9--11--9--|
C||-------------------|--6-------4--6----L-----|--x-x-4--6-----11--9--11--9--|
G||-------------------|--4-------2--4----L-----|--x-x-2--4-------------------|
D||-------------------|------------------------|-----------------------------|


[Intro Solo]

  Q    E  E  Q    E  E     S S E  E  E   E  E   E  E     Q    E  E  Q    Q      
E|------------------------|-----------------------------|------------------------|
B|------------------------|-----------------------------|------------------------|
G|--6-------4--6----| L-----|--x-x-4--6-----11--9--11--9--|--6-------4--6----L\----|
D|--6-------4--6----| L-----|--x-x-4--6-----11--9--11--9--|--6-------4--6----L\----|
A|--4-------2--4----| L-----|--x-x-2--4---------7---9--7--|--4-------2--4----L\----|
E|------------------------|-----------------------------|------------------------|

  S S E  Q    S S E  E  E     Q    E  E  Q    E  E   
E|---------------------------|------------------------|
B|---------------------------|------------------------|
G|--x-x-4--4----x-x----------|--6-------4--6----| L-----|
D|--x-x-4--4----x-x-4--4-----|--6-------4--6----| L-----|
A|--x-x-2--2----x-x-4--4-----|--4-------2--4----| L-----|
E|------------------2--2--0--|------------------------|

  S S E  E  E   E  E   E  E     Q    E  E  Q    Q      
E|-----------------------------|------------------------|
B|-----------------------------|------------------------|
G|--x-x-4--6-----11--9--11--9--|--6-------4--6----| L\----|
D|--x-x-4--6-----11--9--11--9--|--6-------4--6----| L\----|
A|--x-x-2--4---------7---9--7--|--4-------2--4----| L\----|
E|-----------------------------|------------------------|


                            [Verse]

                              PM PM PM PM PM PM PM PM PM PM PM PM  
  S S E  Q    S S E  E  E     E  S  S  E  S  S  E  S  S  E  S  S   
E|---------------------------|--------------------------------------|
B|---------------------------|--------------------------------------|
G|--x-x-4--4----x-x----------|--------------------------------------|
D|--x-x-4--4----x-x-4--4-----|--------------------------------------|
A|--x-x-2--2----x-x-4--4-----|--------------------------------------|
E|------------------2--2--0--|--4--4--4--4--4--4--4--4--4--4--4--4--|


  PM PM PM PM PM              PM PM PM PM PM PM PM PM PM PM PM PM  
  E  S  S  E  E  Q    Q       E  S  S  E  S  S  E  S  S  E  S  S   
E|---------------------------|--------------------------------------|
B|---------------------------|--------------------------------------|
G|-----------------4----6----|--------------------------------------|
D|-----------------4----6----|--------------------------------------|
A|-----------------2----4----|--------------------------------------|
E|--4--4--4--4--4------------|--4--4--4--4--4--4--4--4--4--4--4--4--|


  PM PM PM PM PM PM               PM PM PM PM PM PM PM PM PM PM PM PM  
  E  S  S  E  S  S  Q    Q        E  S  S  E  S  S  E  S  S  E  S  S   
E|-------------------------------|--------------------------------------|
B|-------------------------------|--------------------------------------|
G|-------------------------------|--------------------------------------|
D|-------------------------------|--------------------------------------|
A|-------------------------------|--------------------------------------|
E|--4--4--4--4--4--4--0----2~----|--4--4--4--4--4--4--4--4--4--4--4--4--|


  PM PM PM PM PM              PM PM PM PM PM PM PM PM PM PM PM PM  
  E  S  S  E  E  Q    Q       E  S  S  E  S  S  E  S  S  E  S  S   
E|---------------------------|--------------------------------------|
B|---------------------------|--------------------------------------|
G|-----------------4----6----|--------------------------------------|
D|-----------------4----6----|--------------------------------------|
A|-----------------2----4----|--------------------------------------|
E|--4--4--4--4--4------------|--4--4--4--4--4--4--4--4--4--4--4--4--|



                               [Chorus]
  PM PM PM PM PM PM                                                     
  E  S  S  E  S  S  Q    Q        W                   W                 
E|-------------------------------|-------------------|-------------------|
B|-------------------------------|-------------------|-------------------|
G|-------------------------------|-------------------|-------------------|
D|-------------------------------|-------------------|-------------------|
A|-------------------------------|-------------------|-------------------|
E|--4--4--4--4--4--4--0----2~----|-------------------|-------------------|

  W                   W                   W                   W                 
E|-------------------|-------------------|-------------------|-------------------|
B|-------------------|-------------------|-------------------|-------------------|
G|-------------------|-------------------|-------------------|-------------------|
D|-------------------|-------------------|-------------------|-------------------|
A|-------------------|-------------------|-------------------|-------------------|
E|-------------------|-------------------|-------------------|-------------------|


                                       [Verse]


                                          PM PM PM    PM PM PM PM PM PM PM PM  
  W                   W                   E  S  S  E  S  S  E  S  S  E  S  S   
E|-------------------|-------------------|--------------------------------------|
B|-------------------|-------------------|--------------------------------------|
G|-------------------|-------------------|--------------------------------------|
D|-------------------|-------------------|-----------6--------------------------|
A|-------------------|-------------------|-----------6--------------------------|
E|-------------------|-------------------|--4--4--4-----4--4--4--4--4--4--4--4--|


  PM PM PM PM PM                PM PM PM PM PM PM PM PM PM PM PM PM  
  E  S  S  E  S  S Q    Q       E  S  S  E  S  S  E  S  S  E  S  S   
E|-----------------------------|--------------------------------------|
B|-----------------------------|--------------------------------------|
G|-------------------4----6----|--------------------------------------|
D|-------------------4----6----|--------------------------------------|
A|-------------------2----4----|--------------------------------------|
E|--4--4--4--4--4--------------|--4--4--4--4--4--4--4--4--4--4--4--4--|


  PM PM PM PM PM PM               PM PM PM PM PM PM PM PM PM PM PM PM  
  E  S  S  E  S  S  Q    Q        E  S  S  E  S  S  E  S  S  E  S  S   
E|-------------------------------|--------------------------------------|
B|-------------------------------|--------------------------------------|
G|-------------------------------|--------------------------------------|
D|-------------------------------|--------------------------------------|
A|-------------------------------|--------------------------------------|
E|--4--4--4--4--4--4--0----2~----|--4--4--4--4--4--4--4--4--4--4--4--4--|


  PM PM PM PM PM              PM PM PM PM PM PM PM PM PM PM PM PM  
  E  S  S  E  E  Q    Q       E  S  S  E  S  S  E  S  S  E  S  S   
E|---------------------------|--------------------------------------|
B|---------------------------|--------------------------------------|
G|-----------------4----6----|--------------------------------------|
D|-----------------4----6----|--------------------------------------|
A|-----------------2----4----|--------------------------------------|
E|--4--4--4--4--4------------|--4--4--4--4--4--4--4--4--4--4--4--4--|


  PM PM PM PM PM                                   PM PM  
  E  S  S  E  E  Q    Q        Q    E  E  E  E  E  S  S   
E|---------------------------|-----------------------------|
B|---------------------------|-----------------------------|
G|-----------------6----4----|--11-------6--| L--6--6--------|
D|-----------------6----4----|--11-------6--| L--6--6--------|
A|-----------------4----2----|---9-------4--| L--4--4--4--4--|
E|--4--4--4--4--4------------|-----------------------------|


  PM PM PM PM PM PM PM PM PM PM PM                         PM PM  
  E  S  S  E  S  S  E  S  S  E  E      Q    E  E  E  E  E  S  S   
E|------------------------------------|----------------------------|
B|------------------------------------|----------------------------|
G|------------------------------------|--9-------4--| L--4--4--------|
D|------------------------------------|--9-------4--| L--4--4--------|
A|--4--4--4--4--4--4--4--4--4--4--4/--|--7-------2--| L--2--2--2--2--|
E|------------------------------------|----------------------------|


  PM PM PM PM PM PM PM PM PM PM PM PM                         PM PM  
  E  S  S  E  S  S  E  S  S  E  S  S      Q    E  E  E  E  E  S  S   
E|--------------------------------------|-----------------------------|
B|--------------------------------------|-----------------------------|
G|--------------------------------------|--11-------6--| L--6--6--------|
D|--------------------------------------|--11-------6--| L--6--6--------|
A|--2--2--2--2--2--2--2--2--2--2--2--2--|---9-------4--| L--4--4--4--4--|
E|--------------------------------------|-----------------------------|


  PM PM PM PM PM PM PM PM PM PM PM                         PM PM  
  E  S  S  E  S  S  E  S  S  E  E      Q    E  E  E  E  E  S  S   
E|------------------------------------|----------------------------|
B|------------------------------------|----------------------------|
G|------------------------------------|--9-------4--| L--4--4--------|
D|------------------------------------|--9-------4--| L--4--4--------|
--4--4--4--4--4--
Otros videos de esta canción
    14 exhibiciones
      • ½ Tono
      • Am
      • Bbm
      • Bm
      • Cm
      • C#m
      • Dm
      • Ebm
      • Em
      • Fm
      • F#m
      • Gm
      • G#m
    • Agregar a la lista

    Afinación de cifrado

    Afinador online

      OK