Cifra Club

Lights Out

Savatage

Cifrado: Principal (guitarra y guitarra eléctrica)
Selo Cifra Club: esta cifra foi revisada para atender aos critérios oficiais da nossa Equipe de Qualidade.
tono: A
E|E|-------------------------------------------------------------------------------||
                    Lights Out - by Savatage
E|E|-------------------------------------------------------------------------------||
Tabbed by: Andy (yalaki)


Awesome track from Criss Oliva's final album.

High paced riffs... enjoy!

(solos not included!)

(I'll do my best to answer!)


Tuning: Standard

******
Intro:
******

E|-----------------------------------------------------------|
B|-----------------------------------------------------------|
G|-----------------------------------------------------------|
D|---------5---------5----------------5---------5------------|
A|-----5-7---7~--0-5---7~-7-7-----5-7---7~--0-5---7~-7-7-----|
E|-0----------------------0-0------------------------0-0-----|

E|-----------------------------------------------------------|
B|-----------------------------------------------------------|
G|-----------------------------------------------------------|
D|---------5---------5----------------5---------5------------|
A|-----5-7---7~--0-5---7~-7-7-----5-7---7~--0-5---7~---------|
E|------------------------0-0--------------------------------|

E|-----------------------------------------------------------|
B|-----------------------------------------------------------|
G|-----------------------------------------------------------|
D|----------5---------5----------------5---------5-----------|
A|------5-7---7~--0-5---7~-7-7-----5-7---7~--0-5---7~--7-7---|
E|-0-0---------------------0-0-------------------------0-0---|

E|-----------------------------------------------------------|
B|-----------------------------------------------------------|
G|-----------------------------------------------------------|
D|---------5---------5----------------5---------5------------|
A|-----5-7---7~--0-5---7~-7-7-----5-7---7~--0-5---7\---------|
E|------------------------0-0--------------------------------|

********
Verse 1:
********

"Squirmin' like a live wire, vaporizing hard tire..."

E|-----------------------------------------------------------|
B|-----------------------------------------------------------|
G|-----------------------7~------------------------7~--------|
D|-----5---7-----5-------7~------5---7-----5-------7~--------|
A|-----5---7-----5-------5~------5---7-----5-------5~--------|
E|-0-0---0---0-0---0-0-0-----0-0---0---0-0---0-0-0-----------|
 pm. .   .   . .   . . .     . .   .   . .   . . .

E|-----------------------------------------------------------|
B|-----------------------------------------------------------|
G|-----------------------------------------------------------|
D|----------5---------5----------------5---------5-----------|
A|------5-7---7~--0-5---7~---------5-7---7~--0-5---7~--------|
E|-0-0---------------------0-0-------------------------------|

"No brakes, can't stop, in a ditch to the top..."

E|-----------------------------------------------------------|
B|-----------------------------------------------------------|
G|-----------------------7~------------------------7~--------|
D|-----5---7-----5-------7~------5---7-----5-------7~--------|
A|-----5---7-----5-------5~------5---7-----5-------5~--------|
E|-0-0---0---0-0---0-0-0-----0-0---0---0-0---0-0-0-----------|
 pm. .   .   . .   . . .     . .   .   . .   . . .

*******
Chorus:
*******

"Lights out, runnin' with the devil..."

E|-----------------------------|---------------------------------------------|
B|-----------------------------|---------------------------------------------|
G|----------9------------------|----------9----------------------------------|
D|----------9------------------|----------9----------------------------------|
A|----------7--------------5-7-|----------7--7-6-5---------------------------|
E|--0-0-0-0----0-3-5-0-5-7-----|--0-0-0-0----------7-6-5-3~------------------|
 pm . . . .                       . . . .    

E|-----------------------------|---------------------------------------------|
B|-----------------------------|---------------------------------------------|
G|----------9------------------|----------9----------------------------------|
D|----------9------------------|----------9----------------------------------|
A|----------7--------------5-7-|----------7------------------------------7---|
E|--0-0-0-0----0-3-5-0-5-7-----|--0-0-0-0----0-3-5-0-3-5-0-5-7-0-5-7-5-7-----|
 pm . . . .                       . . . . 

E|-----------------------------------------------------------|
B|-----------------------------------------------------------|
G|-----------------------------------------------------------|
D|----------5---------5----------------5---------5-----------|
A|------5-7---7~--0-5---7~-7-7-----5-7---7~--0-5---7~--7-7---|
E|-0-0---------------------0-0-------------------------0-0---|

E|-----------------------------------------------------------|
B|-----------------------------------------------------------|
G|-----------------------------------------------------------|
D|---------5---------5----------------5---------5------------|
A|-----5-7---7~--0-5---7~-7-7-----5-7---7~--0-5---7\---------|
E|------------------------0-0--------------------------------|

********
Verse 2:
********

"Look (yeah look), yeah she really makes your blood cook..."

E|-----------------------------------------------------------|
B|-------------------------------------------------+---------|
G|-----------------------7~------------------------7~--------|
D|-----5---7-----5-------7~------5---7-----5-----------------|
A|-----5---7-----5-------5~------5---7-----5-----------------|
E|-0-0---0---0-0---0-0-0-----0-0---0---0-0---0-0-0-----------|
 pm. .   .   . .   . . .     . .   .   . .   . . .

E|-----------------------------------------------------------|
B|-----------------------------------------------------------|
G|-----------------------------------------------------------|
D|----------5---------5----------------5---------5-----------|
A|------5-7---7~--0-5---7~---------5-7---7~--0-5---7~--------|
E|-0-0---------------------0-0-------------------------0-0---|

"You (you you) yeah she got you like a big fool..."

E|-----------------------------------------------------------|
B|-----------------------------------------------------------|
G|-----------------------7~------------------------7~--------|
D|-----5---7-----5-------7~------5---7-----5-------7~--------|
A|-----5---7-----5-------5~------5---7-----5-------5~--------|
E|-0-0---0---0-0---0-0-0-----0-0---0---0-0---0-0-0-----------|
 pm. .   .   . .   . . .     . .   .   . .   . . .

*******
Chorus:
*******

"Lights out, runnin' with the devil..."

E|-----------------------------|---------------------------------------------|
B|-----------------------------|---------------------------------------------|
G|----------9------------------|----------9----------------------------------|
D|----------9------------------|----------9----------------------------------|
A|----------7--------------5-7-|----------7--7-6-5---------------------------|
E|--0-0-0-0----0-3-5-0-5-7-----|--0-0-0-0----------7-6-5-3~------------------|
 pm . . . .                       . . . .    

E|-----------------------------|---------------------------------------------|
B|-----------------------------|---------------------------------------------|
G|----------9------------------|----------9--------------------------------9-|
D|----------9------------------|----------9--------------------------------9-|
A|----------7--------------5-7-|----------7------------------------------5-7-|
E|--0-0-0-0----0-3-5-0-5-7-----|--0-0-0-0----0-3-5-0-3-5-0-5-7-0-5-7-5-7-----|
 pm . . . .                       . . . . 

(PAUSE) - hold last E5 chord and drop it slowly with your whammy bar

************
Guitar SOlo:
************

Rhythm Guitar:

E|----------------------------------------------------------------|
B|----------------------------------------------------------------|
G|----------------------------------------------------------------|
D|-------5----------------------------5---------------------------|
A|--5-7----7---5-7---------------5-7----7--5-7--------------------|
E|-------------------0-3-0-3-0------------------0-3-0-3-0---------|

E|----------------------------------------------------------------|
B|----------------------------------------------------------------|
G|----------------------------------------------------------------|
D|-------5----------------------------5---------------------------|
A|--5-7----7---5-7---------------5-7----7--7--6-5-----------------|
E|-------------------0-3-0-3-0--------------------7-6-5-3---------|

E|----------------------------------------------------------------|
B|----------------------------------------------------------------|
G|----------------------------------------------------------------|
D|-------5----------------------------5---------------------------|
A|--5-7----7---5-7---------------5-7----7--7--6-5-----------------|
E|-------------------0-3-0-3-0--------------------7-6-5-3---------|

E|----------------------------------------------------------------|
B|----------------------------------------------------------------|
G|----------------------------------------------------------------|
D|-------5----------------------------5---------------------------|
A|--5-7----7---5-7---------------5-7----7--7--6-5-----------------|
E|-------------------0-3-0-3-0--------------------7-6-5-3---------|

E|----------------------------------------------------------------|
B|----------------------------------------------------------------|
G|-----------------------7~------------------------7~-------------|
D|-----5---7-----5-------7~------5---7-----5-------7~-------------|
A|-----5---7-----5-------5~------5---7-----5-------5~-------------|
E|-0-0---0---0-0---0-0-0-----0-0---0---0-0---0-0-0----------------|
 pm. .   .   . .   . . .     . .   .   . .   . . .

E|-----------------------------|----------------------------------|
B|-----------------------------|----------------------------------|
G|----------9------------------|----------9-----------------------|
D|----------9------------------|----------9-----------------------|
A|----------7--------------5-7-|----------7--7-6-5----------------|
E|--0-0-0-0----0-3-5-0-5-7-----|--0-0-0-0----------7-6-5-3~-------|
 pm . . . .                       . . . .    

E|----------------------------------------------------------------|
B|----------------------------------------------------------------|
G|-----------------------7~------------------------7~-------------|
D|-----5---7-----5-------7~------5---7-----5-------7~-------------|
A|-----5---7-----5-------5~------5---7-----5-------5~-------------|
E|-0-0---0---0-0---0-0-0-----0-0---0---0-0---0-0-0----------------|
 pm. .   .   . .   . . .     . .   .   . .   . . .

E|----------------------------------------------------------------|
B|----------------------------------------------------------------|
G|----------9----------------9------10---10---10---10--10-10-10---|
D|----------9----------------9------10---10---10---10--10-10-10---|
A|----------7----------------7------------------------------------|
E|--0-0-0-0---------0-0-0-0-------0----0----0----0----------------|
 pm . . . .         . . . .       .    .    .    .


*******
Chorus:
*******

"Lights out, ruinning with devil..."

E|-----------------------------|----------------------------------|
B|-----------------------------|----------------------------------|
G|----------9------------------|----------9-----------------------|
D|----------9------------------|----------9-----------------------|
A|----------7--------------5-7-|----------7--7-6-5----------------|
E|--0-0-0-0----0-3-5-0-5-7-----|--0-0-0-0----------7-6-5-3~-------|
 pm . . . .                       . . . .    

E|-----------------------------|----------------------------------|
B|-----------------------------|----------------------------------|
G|----------9------------------|----------9-----------------------|
D|----------9------------------|----------9-----------------------|
A|----------7--------------5-7-|----------7--7-6-5----------------|
E|--0-0-0-0----0-3-5-0-5-7-----|--0-0-0-0----------7-6-5-3~-------|
 pm . . . .                       . . . .    

"lights out running with the devil..."

E|-----------------------------|----------------------------------|
B|-----------------------------|----------------------------------|
G|----------9------------------|----------9-----------------------|
D|----------9------------------|----------9-----------------------|
A|----------7--------------5-7-|----------7--7-6-5----------------|
E|--0-0-0-0----0-3-5-0-5-7-----|--0-0-0-0----------7-6-5-3~-------|
 pm . . . .                       . . . .    

E|-----------------------------|---------------------------------------------|
B|-----------------------------|---------------------------------------------|
G|----------9------------------|----------9----------------------------------|
D|----------9------------------|----------9----------------------------------|
A|----------7--------------5-7-|----------7--------------------------5---5---|
E|--0-0-0-0----0-3-5-0-5-7-----|--0-0-0-0----0-3-5-0-3-5-0-5-7-0-5-7---7-----|
 pm . . . .                       . . . . 

"Yeha, Lights out..."
                                               Repeat 3 times
E|-----------------------------------------------------------|
B|o---------------------------------------------------------o|
G|-----------------------------------------------------------|
D|--------5---------5----------------5---------5-------------|
A|o---5-7---7~--0-5---7~-7-7-----5-7---7~--0-5---7~--7-7----o|
E|-----------------------0-0-------------------------0-0-----|

E|-----------------------------------------------------------|
B|-----------------------------------------------------------|
G|-----------------------------------------------------------|
D|--------5---------5----------------5---------5-------------|
A|----5-7---7~--0-5---7~-7-7-----5-7---7~--0-5---7~----------|
E|-----------------------0-0---------------------------------|

E|----------------------------------------------------------| |
B|----------------------------------------------------------| |
G|---------------------------------9-9-9-9------------------| |
D|---------------------------------9-9-9-9------------------| |
A|---------------------------5---5-7-7-7-7------------------| |
E|---0-3-5-0-3-5-0-5-7-0-5-7---7----------------------------| |



| /  slide up
| \  slide down
| h  hammer-on
| p  pull-off
| ~  vibrato
| +  harmonic
| x  Mute note
| b  Bend note
| r  Release bend
| pb Prebend note
===============================================================================
Otros videos de esta canción
    3 exhibiciones
      • ½ Tono
      • A
      • Bb
      • B
      • C
      • Db
      • D
      • Eb
      • E
      • F
      • F#
      • G
      • Ab
    • Agregar a la lista

    Afinação da cifra

    Afinador online

      Ops (: Contenido disponible solo en portugués.
      OK