Cifra Club

Memory

Savatage

Cifrado: Principal (guitarra y guitarra eléctrica)
Selo Cifra Club: esta cifra foi revisada para atender aos critérios oficiais da nossa Equipe de Qualidade.
tono: Bm
Intro (Clean):

(0:00)
E|-----0---------------0~---|------0---------------2--0~---|
B|---------3---0---2--------|----------3---0---2-----------|
G|---2---2---2---2---2------|----2---2---2---2---2---------|
D|--------------------------|------------------------------|
A|-0------------------------|-0----------------------------|
E|--------------------------|------------------------------|

E|--------------------------------|------------------------|
B|-----2---3---5---5---3---2------|---------------2----2---|
G|---2---2---2-------2---2---4~---|---2---2---4----------4-|
D|--------------------------------|-----2---2---2----------|
A|-0-------------0----------------|-0----------------0-----|
E|--------------------------------|------------------------|

E|--------------------------------|------------------------|
B|-----2---3---5---5---3---2------|---------------2~-------|
G|---2---2---2-------2---2---4~---|---2---2---4-------4~---|
D|--------------------------------|-----2---2---2----------|
A|-0-------------0----------------|-0----------------------|
E|--------------------------------|------------------------|


(Distorted):

(0:35)
E|------------------------------------------------------------------------------------------------------|
B|------------------------------------------------------------------------------------------------------|
G|----------------------------------6----6----7----7----9----9----7----6-------------------------6------|
D|-00-7-00-7-00-7-00-7-00-7-00-7-00---77---77---77---77---77---77---77---77-9-----7----7----9---------9-|
A|-----------------------------------------------------------------------------77---77---77---77---77---|
E|------------------------------------------------------------------------------------------------------|
   ** * ** * ** * ** * ** * ** * **   **   **   **   **   **   **   **   **    **   **   **   **   **

E|------------------------------------------------------------------|
B|------------------------------------------------------------------|
G|----6----6----7----9----9----7----6------------------------6------|
D|-77---77---77---77---77---77---77---77-9----7----7----9---------9-|
A|-----------------------------------------77---77---77---77---77---|
E|------------------------------------------------------------------|
   **   **   **   **   **   **   **   **   **   **   **   **   **

E|------------------------------------------------|
B|------------------------------------------------|
G|--------------6-------6h7p6------6h7p6----------|
D|-------7h8p9----7*--9-------7--9-------7--7-9---|
A|-7h8p9----------------------------------------7-|
E|------------------------------------------------|

E|----------------------------------------------------------|
B|-14--14-15-15b17r15-14-------------14-12~---12h14p--------|
G|-----------------------16-14-14-16-----------------h14~---|
D|----------------------------------------------------------|
A|----------------------------------------------------------|
E|----------------------------------------------------------|


-END-


Legend:
*  =  Palm Mute (Underneath tab)
*  =  Pinch Harmonic (Inside tab)
b  =  bend
r  =  release
h  =  hammer on
p  =  pull off
~  =  let note ring out
Otros videos de esta canción
    0 exhibiciones
      • ½ Tono
      • Am
      • Bbm
      • Bm
      • Cm
      • C#m
      • Dm
      • Ebm
      • Em
      • Fm
      • F#m
      • Gm
      • G#m
    • Agregar a la lista

    Afinação da cifra

    Afinador online

      Ops (: Contenido disponible solo en portugués.
      OK