Cifra Club

Temptation Revelation

Savatage

Cifrado: Principal (guitarra y guitarra eléctrica)
Selo Cifra Club: esta cifra foi revisada para atender aos critérios oficiais da nossa Equipe de Qualidade.
tono: Cm
E|----------------------------------| -------------------------------------|
B|--7h8h7--5/7-7b(8)-7777b(8)-7p5---| -7h8p7-7-----10-1010-10b(11)-8-7-8---|
G|--------------------------------8-| ---------9-7-------------------------|
D|----------------------------------| -------------------------------------|
A|----------------------------------| -------------------------------------|
E|----------------------------------| -------------------------------------|


E|-13h14p13------------------7h8p7---| ----------------------------------|
B|----------15-13-12-12-1010------9-7| -7h8p7-----10-1010-10b(11)-8-7-8--|
G|-----------------------------------| -------9-7------------------------|
D|-----------------------------------| ----------------------------------|
A|-----------------------------------| ----------------------------------|

E|-13h14p13------------------| -----------------------------------------|
B|-----------15-13-12-12-1010| -----------1416171614--------------------|
G|---------------------------| -16b(18)16-----------1416141314----------|
D|---------------------------| -------------------------------1416141314|
A|---------------------------| -----------------------------------------|
E|---------------------------| -----------------------------------------|

E|--------------------------| ---------------------------------------------|
B|--------------------------| ---   -----------15b(17)13-15b(17)13-15-16-18|
G|--------------------------| --8-9-11-9h11p9h8----------------------------|
D|--------------------------| ---------------------------------------------|
A|-1415141214---------------| ---------------------------------------------|
E|------------16------------| ---------------------------------------------|

E|-----------------------------| --------------------------------7h8p10|
B|-18b(19)-16h18p16h15--12p11--| ---------------------------5h7p8------|
G|---------------------------13| -- -------------------4h5p7-----------|
D|-----------------------------| ------2h3p5------3h5p7----------------|
A|-----------------------------| -2h3p5------3h5p7---------------------|
E|-----------------------------| --------------------------------------|

E|-78108781087810---------------------|
B|---------------12-------------------|
G|-----------------13-----------------|
D|--------------------13-13p11--------|
A|----------------------------13-13/16|
E|------------------------------------|
Otros videos de esta canción
    0 exhibiciones
      • ½ Tono
      • Am
      • Bbm
      • Bm
      • Cm
      • C#m
      • Dm
      • Ebm
      • Em
      • Fm
      • F#m
      • Gm
      • G#m
    • Agregar a la lista

    Afinação da cifra

    Afinador online

      Ops (: Contenido disponible solo en portugués.
      OK