Cifra Club

Choke

Saves The Day

Cifrado: Principal (guitarra y guitarra eléctrica)
Selo Cifra Club: esta cifra foi revisada para atender aos critérios oficiais da nossa Equipe de Qualidade.
tono: Bbm
GUITAR INTRO: 1st part play 4 times (-palm mute-) 
E|---------------------------------------------------------------|
B|---------------------------------------------------------------|
G|---------------------------------------------------------------|
D|-----6---6666666666666-----X8--------------------10---11----10-|
A|-----4---4444444444444----------------------------8----9-----8-|
E|---------------------------------------------------------------|

(play this 2 times) don't leave yet it's to early....... 
E|----------------------------------------------------------------|
B|----------------------------------------------------------------|
G|----------------------------------------------------------------|
D|----6666-------------------------------------------10----11--10-|
A|----4444-------33-------8----6----4444444-----------8-----9---8-|
E|---------------11-------6----4----2222222-----------------------|

(play this 2 times) .....but it's in my head and that's where you can't see it.... 
E|-----------------------------------------------------------------------|
B|-----------------------------------------------------------------------|
G|-----------------------------------------------------------------------|
D|---11---10----6666--------11--10----6666----888888888---10----11-11-11-|
A|----9---8-----4444---------9---8----4444----666666666---8--------------|
E|-----------------------------------------------------------------------|

(play 2 times with palm mute you have to listen to the song to get the strumming
right) .......and i'm the type to think of all the wrong things to say......... 
E|----------------------------------------------------------------|
B|----------------------------------------------------------------|
G|----------------------------------------------------------------|
D|----6666-------------------------------------------10----11--10-|
A|----4444-------33-------8----6----4444444-----------8-----9---8-|
E|---------------11-------6----4----2222222-----------------------|

E|----------------|
B|----------------|
G|----------------|
D|----------------|
A|--8---6---4---4-|
E|--6---4---2---2-|

(let ring out) ......I can't say this...... 
E|-------------|
B|-------------|
G|-------------|
D|-------------|
A|----8------4-|
E|----6------2-|

E|------------------------------------|
B|------------------------------------|
G|------------------------------------|
D|--66666-----------------------------|
A|--44444---3333----4444--4444--------|
E|----------1111----2222--2222--------|

2nd guitar (riff) 
E|------------------------------------|
B|------------------------------------|
G|---12-11-11-12-11-11-12-11-11-14-11-|
D|------------------------------------|
A|------------------------------------|
E|------------------------------------|
Otros videos de esta canción
    7 exhibiciones
      • ½ Tono
      • Am
      • Bbm
      • Bm
      • Cm
      • C#m
      • Dm
      • Ebm
      • Em
      • Fm
      • F#m
      • Gm
      • G#m
    • Agregar a la lista

    Afinación de cifrado

    Afinador online

      OK