Cifra Club

Say Youll Never Leave

Saves The Day

Cifrado: Principal (guitarra y guitarra eléctrica)
Selo Cifra Club: esta cifra foi revisada para atender aos critérios oficiais da nossa Equipe de Qualidade.
tono: Em
E|E|-------------------------------------------------------------------------------||
                             Say you'll never leave - saves the day
E|E|-------------------------------------------------------------------------------||
Originally tabbed by: TheTroy
Tuning: Half-Step down

intro riff
E|--------------------------------------------------------------------------|
B|--------------------------------------------------------------------------|
G|--------------------------------------------------------------------------|
D|--------------------------------------------------------------------------|
A|-----0-2------0-2h3p2p0--------0-2------0-2h3p2p0-------------------------|
E|-0-3------0-3-----------3--0-3------0-3-----------------------------------|

verse (timing not shown) X2
E|--------------------------------------------------------------------------|
B|--------------------------------------------------------------------------|
G|--------------------------------------------------------------------------|
D|-------------4-4---4-4--9-9-----------------------------------------------|
A|-2-2---5-5---3-3---2-2--6-6-----------------------------------------------|
E|-0-0---3-3----------------------------------------------------------------|

chorus X2
E|--------------------------------------------------------------------------|
B|--------------------------------------------------------------------------|
G|---------------------------------------------4-4-4-4----------------------|
D|-2222222222222222-5555555555555555-444444444-4-4-4-4----------------------|
A|-2222222222222222-5555555555555555-333333333-2-2-2-2----------------------|
E|-0000000000000000-3333333333333333----------------------------------------|

play intro riff
E|--------------------------------------------------------------------------|
B|--------------------------------------------------------------------------|
G|--------------------------------------------------------------------------|
D|--------------------------------------------------------------------------|
A|-----0-2------0-2h3p2p0--------0-2------0-2h3p2p0-------------------------|
E|-0-3------0-3-----------3--0-3------0-3-----------------------------------|

verse X2
E|--------------------------------------------------------------------------|
B|--------------------------------------------------------------------------|
G|--------------------------------------------------------------------------|
D|-------------4-4---4-4--9-9-----------------------------------------------|
A|-2-2---5-5---3-3---2-2--6-6-----------------------------------------------|
E|-0-0---3-3----------------------------------------------------------------|

chorus X2
E|--------------------------------------------------------------------------|
B|--------------------------------------------------------------------------|
G|---------------------------------------------4-4-4-4----------------------|
D|-2222222222222222-5555555555555555-444444444-4-4-4-4----------------------|
A|-2222222222222222-5555555555555555-333333333-2-2-2-2----------------------|
E|-0000000000000000-3333333333333333----------------------------------------|


bridge pt 1
E|-0~-----0~----------0~----------------------------------------------------|
B|-0~--3~---3~----3~----3~--------------------------------------------------|
G|-0~--0~-----0~--0~------0~--4~--------------------------------------------|
D|-2~--0~---------4~----------4~--9~----------------------------------------|
A|-2~--x~---------3~----------2~--6~----------------------------------------|
E|-0~--3~-------------------------------------------------------------------|

bridge pt 2 (play the verse but strum each chord continuously)
E|--------------------------------------------------------------------------|
B|--------------------------------------------------------------------------|
G|--------------------------------------------------------------------------|
D|-------------4-4---4-4--9-9-----------------------------------------------|
A|-2-2---5-5---3-3---2-2--6-6-----------------------------------------------|
E|-0-0---3-3----------------------------------------------------------------|


part after bridge
E|---------------------2----------------------------------------------------|
B|---------------------x-(| mute with index finger)---------------------------|
G|-12------12----11----x-(| mute with ring finger)--4-4-4-4-------------------|
D|-9--X16--12-X8-12-X8-4--------------------------4-4-4-4-------------------|
A|-7-------10----9-----3--------------------------2-2-2-2-------------------|
E|--------------------------------------------------------------------------|

chorus X2
E|--------------------------------------------------------------------------|
B|--------------------------------------------------------------------------|
G|---------------------------------------------4-4-4-4----------------------|
D|-2222222222222222-5555555555555555-444444444-4-4-4-4----------------------|
A|-2222222222222222-5555555555555555-333333333-2-2-2-2----------------------|
E|-0000000000000000-3333333333333333----------------------------------------|

end on Em chord

| /  slide up
| \  slide down
| h  hammer-on
| p  pull-off
| ~  vibrato
| +  harmonic
| x  Mute note
===============================================================================
Otros videos de esta canción
    1 exhibiciones
      • ½ Tono
      • Am
      • Bbm
      • Bm
      • Cm
      • C#m
      • Dm
      • Ebm
      • Em
      • Fm
      • F#m
      • Gm
      • G#m
    • Agregar a la lista

    Afinação da cifra

    Afinador online

      Ops (: Contenido disponible solo en portugués.
      OK