Cifra Club

Victorian And 21St

Saves The Day

Cifrado: Principal (guitarra y guitarra eléctrica)
Selo Cifra Club: esta cifra foi revisada para atender aos critérios oficiais da nossa Equipe de Qualidade.
tono: Eb
E|-11-------10-------------10-------11---------------------------------------|
B|----13----------------------11----------13----13---------------------------|
G|-------12-------13-12-13-------12----------12------------------------------|
D|---------------------------------------------------------------------------|
A|---------------------------------------------------------------------------|
E|---------------------------------------------------------------------------|


"...Somehow lightning in a bottle ricochets lights a spark on the ground"

E|-11-------10-------------10---------11~------------------------------------|
B|----13----------------------11------13~------------------------------------|
G|-------12-------13-12-13-------12---12~------------------------------------|
D|---------------------------------------------------------------------------|
A|---------------------------------------------------------------------------|
E|---------------------------------------------------------------------------|
Otros videos de esta canción
      • ½ Tono
      • A
      • Bb
      • B
      • C
      • Db
      • D
      • Eb
      • E
      • F
      • F#
      • G
      • Ab
    • Agregar a la lista

    Afinación de cifrado

    Afinador online

      OK