Cifra Club

Amanheceu

Scalene

Tablatura: Principal (guitarra)
Tom: G
Afinação - Drop D
(Sexta Corda afinada em Ré - 1 tom abaixo)

Intro:

Parte de 1 de 2
E|-3----------2----------2----------2-------------------|
B|-------0----------0----------0----------0-------------|
G|-----4---4------2---2------2---2------2---2-----------|
D|---0----------0----------0----------0-----------------|
A|------------------------------------------------------|
E|-0----------0----------0----------0-------------------|

Parte de 2 de 2
E|-3------5----2----------2----------2------------------|
B|-------------------0----------0-----------------------|
G|-----4----6------2---2------2---2---------------------|
D|---0-----------0----------0---------------------------|
A|------------------------------------------------------|
E|-0-----------0----------0----------0------------------|

Primeira Parte:
Parte de 1 de 4
      D
E|------------------------------------------|
B|------------------------------------------|
G|-7-9-----9---11-----11---11-----11--------|
D|-------0---0------0----0------0----0------|
A|-----0----------0-----------0-------------|
E|---0---------0-----------0----------------|

E|------------------------------------------|
B|------------------------------------------|
G|-12-11--9--7------------------------------|
D|------------------------------------------|
A|------------------------------------------|
E|-0--0-------------------------------------|

Parte de 2 de 4
    Bm
E|------------------------------------------|
B|------------------------------------------|
G|-9-----9---7-----7---7-----7---7-----7----|
D|-----0---0-----0---0-----0---0-----0---0--|
A|---9---------9---------9---------9--------|
E|-9---------9---------9---------9----------|

Parte de 3 de 4
    G                    A11
E|------------------------------------------|
B|------------------------------------------|
G|-4-----4---4-----4--/-6-----6---6-----6---|
D|-----0---0-----0---0------0---0-----0---0-|
A|---5---------5------/---7---------7-------|
E|-5---------5--------/-7---------7---------|

Parte de 4 de 4
    D
E|------------------------------------------|
B|------------------------------------------|
G|-7-----7---4-----4---2-----2---2-----/7---|
D|-----0---0-----0---0-----0---0-----0------|
A|---0---------0---------0---------0--------|
E|-0---------0---------0---------0----------|

  D
Amanheceu
                 Bm
Diz que não vai mais chover
           G
Já aprendi a perder
A11               D
    Chegou a sua vez

   D
Estou aqui
              Bm
Onde sempre quis estar
          G
Devo tudo isso a ti
A11               D
    Mas preciso voar

Refrão:
Parte de 1 de 4
    G
E|------------------------------------------|
B|------------------------------------------|
G|-4-----4---4-----4---4----4---4-----4-----|
D|-----0---0-----0---0----0---0-----0---0---|
A|---5---------5--------5---------5---------|
E|-5---------5---------5--------5-----------|

Parte de 2 de 4
    D
E|---------------------3---------2----------|
B|-----------3---------3---------3----------|
G|-2-----2---------2---------0---------0----|
D|-----4---4-----4---4-----4---0-----4---4--|
A|---0---------0---------0---------0--------|
E|-0---------0---------0---------0----------|

Parte de 3 de 4
    C                   Bm
E|------------------------------------------|
B|-1-----1---1-----1---3-----3---3-----3----|
G|-----0---0-----0---0-----4---4-----4---4--|
D|---2---------2---------4---------4--------|
A|-3---------3---------2---------2----------|
E|------------------------------------------|

Parte de 4 de 4
    Bb6                  A7
E|------------------------------------------|
B|-3-----3---3-----3----2-------------------|
G|-----0---0-----0---0--0-------------------|
D|---3---------3--------2-------------------|
A|-1---------1----------0-------------------|
E|------------------------------------------|
 G              D
Vou sempre ser seu
 G             D
Seu sorriso é meu
              C
Lhe peço que tenha 
     Bm          Bb6
A coragem de confiar
    A7
Em sua criação

Variação Intro:

Parte de 1 de 2
E|-3----------2----------2------------------------------|
B|-------0----------0----------0------------------------|
G|-----4---4------2---2------2---2--------0-------------|
D|---0----------0----------0--------0h2/4---4\2p0-------|
A|------------------------------------------------------|
E|-0----------0----------0------------------------------|

Parte de 2 de 2
E|-3------5----2----------2----------2------------------|
B|-------------------0----------0----------0------------|
G|-----4----6------2---2------2---2------2--------------|
D|---0-----------0----------0----------0----------------|
A|------------------------------------------------------|
E|-0-----------0----------0----------0------------------|

Repete a Primeira Parte:
 
 D
Mãe, eu sei
               Bm
Moro em outro mundo, sim
            G
Onde só o amor é lei
A11               D
    Me ensinou assim

 D
Resta achar
             Bm
Onde mora a perfeição
               G
Entre o amor e a razão
A11                D
    Assim serei feliz

Refrão Final:
Parte de 1 de 4
    G
E|------------------------------------------|
B|------------------------------------------|
G|-4-----4---4-----4---4----4---4-----4-----|
D|-----0---0-----0---0----0---0-----0---0---|
A|---5---------5--------5---------5---------|
E|-5---------5---------5--------5-----------|

Parte de 2 de 4
    D
E|---------------------3---------2----------|
B|-----------3---------3---------3----------|
G|-2-----2---------2---------0---------0----|
D|-----4---4-----4---4-----4---0-----4---0--|
A|---0---------0---------0---------0--------|
E|-0---------0---------0---------0----------|

Parte de 3 de 4
    C                   Bm
E|------------------------------------------|
B|-1-----1---1-----1---3-----3---3-----3----|
G|-----0---0-----0---0-----4---4-----4---4--|
D|---2---------2---------4---------4--------|
A|-3---------3---------2---------2----------|
E|------------------------------------------|

Variação na Parte 4 de 4
    Bb6                  A7
E|------------------------------------------|
B|-3-----3---3-----3----2-----2---2-----2---|
G|-----0---0-----0---0------0---0-----0---0-|
D|---3---------3----------2---------2-------|
A|-1---------1----------0---------0---------|
E|------------------------------------------|

 G              D
Vou sempre ser seu
 G             D
Seu sorriso é meu
              C
Lhe peço que tenha 
     Bm          Bb6
A coragem de confiar
    A7
Em sua criação

Final:
Parte 1 de 5
    D5        D7        D6        Gm6/D
E|-------------------------------3----------|
B|-3-----3---1-----1---0-----0---5-----5----|
G|-----2---2-----2---2-----2---2-----3---3--|
D|---0---------0---------0---------0--------|
A|------------------------------------------|
E|-0---------0---------0---------0----------|

Parte 2 de 5
    D         D7        D6        Gm6/D
E|-2-----------------------------6----------|
B|-3-----3---1-----1---0-----0---5-----5----|
G|-----2---2-----2---2-----2---2-----3---3--|
D|---0---------0---------0---------0--------|
A|------------------------------------------|
E|-0---------0---------0---------0----------|

Parte 3 de 5
    D5        D7        D6        Gm6/D
E|-5-----------------------------3----------|
B|-3-----3---1-----1---0-----0---5-----5----|
G|-----2---2-----2---2-----2---2-----3---3--|
D|---0---------0---------0---------0--------|
A|------------------------------------------|
E|-0---------0---------0---------0----------|

Parte 4 de 5
    D         D7        D6        Gm6/D
E|-2-----------------------------6----------|
B|-3-----3---1-----1---0-----0---5-----5----|
G|-----2---2-----2---2-----2---2-----3---3--|
D|---0---------0---------0---------0--------|
A|------------------------------------------|
E|-0---------0---------0---------0----------|

Parte 5 de 5
    D5        D7        D6        Gm6/D     D
E|-5-----------------------------3----------|
B|-3-----3---1-----1---0-----0---5-----5---3|
G|-----2---2-----2---2-----2---2-----3---3-2|
D|---0---------0---------0---------0-------4|
A|-----------------------------------------0|
E|-0---------0---------0---------0---------0|

( D5  D7  D6  Gm6/D )
( D  D7  D6  Gm6/D )

( D5  D7  D6  Gm6/D )
( D  D7  D6  Gm6/D )

( D5  D7  D6  Gm6/D  D )
reproducciones 613
Acordes para:

    0 comentarios

    mostrar más comentarios

    ¿Conseguiste tocar?

    41 tocaron 11 aún no

    ¡Graba un vídeo tocando Amanheceu y envianoslo!

    00:00 / 00:00
    outros vídeos desta música
    repetir qualidade Automático
    Outros vídeos desta música
    00:00 / 00:00
    Automático
    Capítulos
    • Tocando a música
    • Dicas Iniciais / Equipamentos
    • Tocando Introdução e Primeira Parte
    • Introdução - Parte 1 de 2
    • Introdução - Parte 2 de 2
    • Introdução (variação) - Parte 1 de 2
    • Acordes da Primeira Parte
    • Tocando a Primeira Parte
    • Primeira Parte - Parte 1 de 4
    • Primeira Parte - Parte 2 de 4
    • Primeira Parte - Parte 3 de 4
    • Primeira Parte - Parte 4 de 4
    • Acordes do Refrão
    • Tocando o Refrão
    • Refrão - Parte 1 de 4
    • Refrão - Parte 2 de 4
    • Refrão - Parte 3 de 4
    • Refrão - Parte 4 de 4
    • Acordes do Final
    • Tocando o Final
    • Refrão - Parte 4 de 4 (variação)
    • Final - Parte 1 de 5
    • Final - Parte 2 de 5
    • Final - Parte 3 de 5
    • Final - Parte 4 de 5
    • Final - Parte 5 de 5
    • Encerramento
    • Ficha Técnica
    OK