Cifra Club

Casa Aberta

Scalene

Cifrado: Principal (guitarra y guitarra eléctrica)
Quer fazer aulas de música com a gente? Responda essas perguntas
e nos ajude nesse projeto! →
tono: C (con acordes en la forma de Db) Afinación: D G C F A D Capotraste en 1ª casa
[Intro]

E|--2--5---0---------0--2--5---0---------0--2----------2---------|
B|--------------3-------------------3-------2h3p2h3p2--2---------|
G|------------------------------------------2----------2h4p2h4p2-|
D|------------------------------------------0----------0---------|
A|---------------------------------------------------------------|
E|--3----3----3----3----3----3----3----3-------------------------|

G7M                                 D7M
Viu a flor pra vender pois fechou sinal
G7M                             D7M
Perguntou pro amigo como que seu pai está
G7M                                D7M
Percebeu nas suas costas manchas de sol
A                  Bm7
Avisou que chegaria tarde
   Em7 A7 
Em casa   
               D
Com a luz da manhã

E|-----------|
B|------3--5-|
G|--2-4------|
D|--0--------|
A|-----------|
E|-----------|

   G7M                             D7M
Desfez o nó da gravata e sentou num bar
G7M                               D7M
Presenteou se pois desligou o seu celular
G7M                              D7M
Sentiu falta de sentir falta de alguém
 A                     Bm7
Concordou que andava ansioso
    Em7  A7   
A espera   
             D
Da luz da manhã

Em7            
  No cruzamento da rua
                   Bm7
Sincronizaram um velho olhar
 Em7               
  De quando olhávamos firme
                    Bm7
No olho da outra pessoa
A                    G
Esqueceu a casa toda aberta
  Em7    A7                             
E sonha
  Em7    A7
Espera 
           D
A luz da manhã
Composición de Gustavo Bertoni / Lukão / Makako / Tomás Bertoni
Colaboración y revisión:
462 vistas
    • ½ Tono
    • A
    • Bb
    • B
    • C
    • Db
    • D
    • Eb
    • E
    • F
    • F#
    • G
    • Ab
  • Agregar a la lista

    0 comentarios

    Ver todos los comentarios

    ¿Lograste tocar?

    15 Tocaron 1 Aún no

    ¡Graba un video tocando Casa Aberta y envíanoslo!

    00:00 / 00:00
    Outros vídeos desta música
    Repetir Calidad Automático
    Outros vídeos desta música
    00:00 / 00:00
    Automático
    OK