Cifra Club

Forma Padrão

Scalene

Cifrado: Principal (guitarra y guitarra eléctrica)
tono: C
Intro: G F C B

Riff:  
E|----------------------------------------------------------------------------------|
B|----------------------------------------------------------------------------------|
G|-----------------------------------------------------------------5-5---5-5-5--5---|
D|-----------------------------------------------------------------3-3---3-3-3--3---|
A|----5-5----------------5--5----------------3-3---3-3-3----3-----------------------|
E|----3-3---3--1--3--1---3--3---3--1--3--1---1-1---1-1-1----1-----------------------|

E|-------------------------------------------------------------------------------|
B|-------------------------------------------------------------------------------|
G|-----------------------------------------------------------------5-5---5-5-3---|
D|-----------------------------------------------------------------3-3---3-3-1---|
A|----5-5----------------5--5----------------3-3---3-3-3----3--------------------|
E|----3-3---3--1--3--1---3--3---3--1--3--1---1-1---1-1-1----1--------------------|

G5
Em meio a esse caos, tinha tanto a perder
D5                  F5
E muito a decidir, procurei entender
G5
O meu futuro eu vi, aos poucos embaçar
D5              F5
Pelo seu orgulho

D#5             C5                 G5 (riff da intro)
Você me disse, disse você me querer
D#5              C5
Em meias-verdades
.
G5          D#5        C5
Ceguei-me ao tentar enxergar com seus olhos
G5           D#5        C5
De quem tentou calar a voz de tantos outros

G
Se eu não tivesse ouvido
Dm              F
Minha intuição cantar tão alto
G                 Dm           F
Correria o risco de ser mais um
D#5            C5              G5 (riff da intro)
Encarcerado em uma forma padrão
D#5             C5
Mais um fracasso

G5          D#5        C5
Ceguei-me ao tentar enxergar com seus olhos
G5          D#5         C5
De quem tentou calar a voz de tantos outros

Ponte G5 G5 F5

G5          D#5        C5
Ceguei-me ao tentar enxergar com seus olhos
G5          D#5         C5
De quem tentou calar a voz de tantos outros

(Riff da Intro)
Composición de Scalene
Colaboración y revisión:
  • Lukas Evaldt
35 vistas
    • ½ Tono
    • A
    • Bb
    • B
    • C
    • Db
    • D
    • Eb
    • E
    • F
    • F#
    • G
    • Ab
  • Agregar a la lista

    0 comentarios

    Ver todos los comentarios

    ¿Lograste tocar?

    0 Tocaron 0 Aún no

    ¡Graba un video tocando Forma Padrão y envíanoslo!

    00:00 / 00:00
    Outros vídeos desta música
    Repetir Calidad Automático
    Outros vídeos desta música
    00:00 / 00:00
    Automático
    OK