Cifra Club

Aprenda

Histeria

Scalene

Tablatura: Principal (guitarra)
Tom: Bb (con acordes en la forma de B) Afinação: Eb Ab Db Gb Bb Eb
Intro: G#m G#m9/C# C#m7


C#m
Já me sufoquei
Dei adeus ao controle
E o prazer que busquei
Agora me consome
G5                E   D
Minha mente a tragar
C#m
Não é mais o que quero
E sim o que preciso
G5              E   D
Em você vou achar?

Riff refrão

Eb|--------------------------------
Bb|--------------------------------
Gb|--------------------------------
Db|--6-6--6-6--6-6--5-4-2--5-4-2--5
Ab|--4-4--4-4--4-4-----------------
Eb|--------------------------------


--------------------------------
--------------------------------
--------------------------------
--6-6--6-6--6-6--5-4-2--5-4-2---
--4-4--4-4--4-4-----------------
--------------------------------

--------------------------------
--------------------------------
--------------------------------
--6-6--6-6--6-6--5-4-2--5-4-2--5
--4-4--4-4--4-4-----------------
--------------------------------

---------------------------------------------
---------------------------------------------
---------------------------------------------
--6-6--6-6--6-6--5-4-2--5-4-2--------------6-
--4-4--4-4--4-4----------------------4-5-2-4-
-------------------------------6-7-4---------

C#m
Um pouco mais de perto
Sua essência tocar
De olhos aberto
Deixa lhe devorar


C#m
Transparecer a calma
Por dentro, explodir
Levei diversas marcas
Mas não me satisfiz
G5               E   D
Tenho que recomeçar

C#m
Qual o seu limite?
Até onde vai?
G5                E   D
Pro desejo alcançar

C#m
Um pouco mais de perto
Sua essência tocar
De olhos abertos 
Deixa lhe devorar


Eb|---------------------------------
Bb|---------------------------------
Gb|---------------------------------
Db|-------------------4-------------
Ab|--4-5----------4-5---------------
Eb|-------7-6-7-4-------------------

---------------------------------
---------------------------------
---------------------------------
---------------------------------
--4-5----------4-5--2------------
-------7-6-7-4-------------------

----------------------------------
----------------------------------
----------------------------------
-------------------4------------6-
--4-5----------4-5--------4-5-2-4-
-------7-6-7-4--------------------



C#m
Qual o seu limite?
Até onde vai?
Colaboración y revision:
  • Matheus Oriente
30 reproducciones
    • ½ Tom
    • A
    • Bb
    • B
    • C
    • Db
    • D
    • Eb
    • E
    • F
    • F#
    • G
    • Ab
  • Adicionar à lista

    0 comentarios

    Mostrar mais comentários

    ¿Conseguiste tocar?

    1 Tocaron 0 Ainda não

    Grave um vídeo tocando Histeria e mande pra gente!

    00:00 / 00:00
    outros vídeos desta música
    repetir qualidade Automático
    Outros vídeos desta música
    00:00 / 00:00
    Automático

    Cifra Club Pro

    Aproveite o Cifra Club com benefícios exclusivos e sem anúncios
    7 dias grátis
    Cifra Club Pro
    Aproveite o Cifra Club com benefícios exclusivos e sem anúncios
    7 dias grátis
    OK