Cifra Club

Aprenda

Maré

Scalene

Tablatura: Principal (guitarra)
Tom: Dm
          C6               B7              Bb6              A7
E|----------------------------------------------------------------------|
B|--10-----10--------10--------10-----8-------8--------8-----8----------|
G|-------9-----------------8------8--------7----7----------6---6--------|
D|----10------10---------9---------------8--------8------7--------------|
A|--0----------------0----------------0---------------0-----------------|
E|----------------------------------------------------------------------|

  C6    B7              Bb6    A7
Puxa como a mais forte maré
C6          B7
Já não sei bem
Bb6           A7
O que é e não é
C6           B7
Meu ou de nós
 Bb6               A7
De quem ouve e quem vê
C6            B7
Magnetite invisível
Bb6             A7
Telepatia do ser

          F6               Bb7M              C/E              D/F#
E|----------------------------------------------------------------------|
B|--3------3---------3------3---------1-----1-----------3-----3---------|
G|-------2---2------------2---2-----------0---0-------------2---2-------|
D|----3----------------3----------------2-----------------4-------------|
A|--0----------------1----------------0-----------------0---------------|
E|----------------------------------------------------------------------|

          F6               Bb7M              C/E              D/F#
E|----------------------------------------------------------------------|
B|--3------3---------3------3---------1-----1-----------3-----3---------|
G|-------2---2------------2---2-----------0---0-------------2---2-------|
D|----3----------------3----------------2-----------------4-------------|
A|--0----------------1----------------0-----------------0---------------|
E|----------------------------------------------------------------------|


F6     Bb7M
De longe
C/E    D/F#
Recebo
F6     Bb7M
De perto
C/E      D/F# Gm9-/G#  G11+  Cm6  Bb7M  D9/F# Em7 E7   Am6
Comparto

C6    B7               Bb6     A7
Novo não é o que ouve de mim
C6               B7
Sempre esteve aqui
Bb6             A7
Nada tem de ruim
C6         B7
somos um só
           Bb6    A7
Filhos da mesma mãe
C6              B7
Conectados em uma
Bb6             A7
Mesma compreensão

F6     Bb7M
No escuro
C/E    D/F#
Te vejo
F6      Bb7M
Silêncio
C/E      F# Gm9-/G#  G11+  Cm6  Bb7M  D9/F# Em7 E7   Am6
Me ouço

C6          B7            Bb6      A7
Há muito mais do que o olho vai ver
C6            B7
Do que sua mente
Bb6          A7
Pode conceber
C6            B7
Nas entrelinhas
Bb6           A7
Do quântico ar
C6              B7
Magnetite invisível
Bb6             A7
Telepatia do ser
Bb6             A7
Telepatia do ser
Bb6             A7
Telepatia do ser
Bb6             A7
Telepatia do ser
Bb6             A7
Telepatia do ser
Colaboración y revision:
  • Heron Saba
  • João Ferigati
9 reproducciones
    • ½ Tom
    • Am
    • Bbm
    • Bm
    • Cm
    • C#m
    • Dm
    • Ebm
    • Em
    • Fm
    • F#m
    • Gm
    • G#m
  • Adicionar à lista

    0 comentarios

    Mostrar mais comentários

    ¿Conseguiste tocar?

    2 Tocaron 2 Ainda não

    Grave um vídeo tocando Maré e mande pra gente!

    00:00 / 00:00
    outros vídeos desta música
    repetir qualidade Automático
    Outros vídeos desta música
    00:00 / 00:00
    Automático

    Cifra Club Pro

    Aproveite o Cifra Club com benefícios exclusivos e sem anúncios
    7 dias grátis
    Cifra Club Pro
    Aproveite o Cifra Club com benefícios exclusivos e sem anúncios
    7 dias grátis
    OK