Cifra Club

Aprenda

Sonhador II

Scalene

Tablatura: Principal (guitarra)
Tom: A#
                    D#
Não ouse negar o sonhador
C                           Cm            D
Há mais dentro dele do que possa imaginar
Gm                     D#
Nada menos que uma vocação
C                       Cm             D
Acredite que ele pode ser sua redenção


( Gm Gm5+ G# ) - 2x

        Gm                           Gm5+                 G#
E|------------------------------------------------------4--|
B|------------------------------------------------------4--|
G|------------------------------------------------------5--|
D|------------------------------------------------------6--|
A|-----5----------5----------5--------6----------6------6--|
E|-3-3---3-3--3-3---3-3--3-3---3--3-3---3-3--3-3---3-3--4--|


Gm                  D#
Não ouse negar o sonhador
Gm                      Cm          Dm
São pessoas que irão fazer imaginar
Gm                        D#
Mais do que uma mera direção
C                         Cm             D
Já lhe disse antes mas vou repetir então


Gm  D#  C  Cm
Cante   alto 

D           D#
Seus sonhos
D           D#   F
Seus sonhos


( Gm Gm5+ G# ) - 2x

( Gm Gm11 Gm G Gm ) - 2x

      Gm      Gm11  Gm    G   Gm
E|--3---3---3----3-----3---3--|
B|--3---3---3----3-----3---3--|
G|--3---3---3----3-----4---3--|
D|--5---5---3----5-----5---5--|
A|--5---5---3----5-----5---5--|
E|--3---3---3----3-----3---3--|

Gm                   G      Gm
Descubra terras fora do mapa
Gm               G   Gm
Segredo nas estrelas
Gm                    G          Gm
E novas portas para o futuro
Gm              G    Gm
É um dever acreditar

D            D#
Nos sonhos
D            D#
Seus sonhos

( D D#  D D# F )

                    D#
Não ouse negar o sonhador
C                           Cm            D
Há mais dentro dele do que possa imaginar
Compositor Gustavo Bertoni / Scalene / Tomás Bertoni
Colaboración y revision:
  • Cleiton Hetfield
  • Giordano Rodrigues
41 reproducciones
    • ½ Tom
    • A
    • Bb
    • B
    • C
    • Db
    • D
    • Eb
    • E
    • F
    • F#
    • G
    • Ab
  • Adicionar à lista

    0 comentarios

    Mostrar mais comentários

    ¿Conseguiste tocar?

    3 Tocaron 0 Ainda não

    Grave um vídeo tocando Sonhador II e mande pra gente!

    00:00 / 00:00
    outros vídeos desta música
    repetir qualidade Automático
    Outros vídeos desta música
    00:00 / 00:00
    Automático

    Cifra Club Pro

    Aproveite o Cifra Club com benefícios exclusivos e sem anúncios
    7 dias grátis
    Cifra Club Pro
    Aproveite o Cifra Club com benefícios exclusivos e sem anúncios
    7 dias grátis
    OK