Cifra Club

Aprenda

Surreal

Scalene

Tablatura: Principal (guitarra)
Tom: A#
Intro: Eb  Cm  Bb6  Dm11

Dedilhado Intro e Primeira Parte

Parte 1 de 7  Eb
E|------------------------------------------|
B|-------8-------8-------8-------8----------|
G|-----0-------0-------0-------0------------|
D|---8-------8-------8-------8--------------|
A|-6-------6-------6-------6----------------|
E|------------------------------------------|
Parte 2 de 7
   Cm
E|------------------------------------------|
B|-------4-------4-------4-------4----------|
G|-----0-------0-------0-------0------------|
D|---5-------5-------5-------5--------------|
A|-3-------3-------3-------3----------------|
E|------------------------------------------|
Parte 3 de 7
   Bb6
E|------------------------------------------|
B|-------3-------3-------3-------3----------|
G|-----0-------0-------0-------0------------|
D|---3-------3-------3-------3--------------|
A|-1-------1-------1-------1----------------|
E|------------------------------------------|
Parte 4 de 7
   Dm11
E|------------------------------------------|
B|-------6-------6-------6-------6----------|
G|-----0-------0-------0-------0------------|
D|---7-------7-------7-------7--------------|
A|-5-------5-------5-------5----------------|
E|------------------------------------------|
Parte 5 de 7
   Eb
E|------------------------------------------|
B|-------8-------8-------8-------8----------|
G|-----0-------0-------0-------0------------|
D|---8-------8-------8-------8--------------|
A|-6-------6-------6-------6----------------|
E|------------------------------------------|
Parte 6 de 7 (2x)
   Gb7M
E|------------------------------------------|
B|---------11---------11--------------------|
G|------10---------10-----------------------|
D|---11---------11--------------------------|
A|-9----------9-----------------------------|
E|------------------------------------------|
Parte 7 de 7
   Gm         G4         Gm
E|------------------------------------------|
B|---------11---------13---------11---------|
G|-------0----------0----------0------------|
D|----12---------12---------12--------------|
A|-10---------10---------10-----------------|
E|------------------------------------------|

E|------------------------------------------|
B|-----11-11-11-----------------------------|
G|-----0--0--0------------------------------|
D|-----12-12-12-----------------------------|
A|-10--10-10-10-----------------------------|
E|------------------------------------------|

Primeira Parte:
Eb
   Nada era certo
Cm                     Bb6
   Mas parecia tão normal
          Dm11
Me acostumei com a incerteza ideal
Eb
   Nos faz querer o tudo
Cm                  Bb6
   O pouco não é opção
             Dm11
Será surreal 
                       
Ter o mundo em minhas mãos


( Eb  Gb7M  Gm  G4  Gm )


Segunda Parte:
Eb7M
     Tinha ao meu lado
Cm7                      Bb7M
    Quem soubesse me ajudar
            
E acreditei 
Dm/A
     No que iria me tornar
Eb7M
     O pouco era simples
Cm7                 Bb7M
    O tudo foi a opção

Será irreal 
Dm/A
     Ter o mundo em minhas mãos


( Eb7M   Gb7M )


Refrão:

Bb7M        Gm
     Longe,    alto
Dm      F/C
   Cabe     a cada um de nós dizer
Bb7M       Gm
     Onde,    quando
Dm      F/C
   Cabe     a cada um de nós saber


Terceira Parte:

Eb5
    A felicidade 
Cm7                   Bb6
    Acordamos só pra ter
            Dm/A
E compartilhar 

Com aqueles que nos fazem
Eb5
    Sentir que estamos perto
Cm7                        Bb6
    Saber que o longe é opção
  
Será ideal 
Dm/A
     Ter o mundo em minhas mãos

(Eb7M  Gb7M)


Refrão:
Bb7M        Gm
     Longe,    alto
Dm      F/C
   Cabe     a cada um de nós dizer
Bb7M       Gm
     Onde,    quando
Dm      F/C
   Cabe     a cada um de nós saber


Quarta Parte:
( G5  G7  G6  G5 ) (2x)

 G5    G7     G6   G5
Seja qual for o final
 G5   G7      G6   G5
Faça ser algo ide__al
 G5    G7     G6   G5
Seja qual for o final
 G5   G7       G6  G5
Faça ser algo surreal
Compositor Gustavo Bertoni / Tomás Bertoni
740 reproducciones
  • Simplificar cifra
    • ½ Tom
    • A
    • Bb
    • B
    • C
    • Db
    • D
    • Eb
    • E
    • F
    • F#
    • G
    • Ab
  • Adicionar à lista

    0 comentarios

    Mostrar mais comentários

    ¿Conseguiste tocar?

    42 Tocaron 11 Ainda não

    Grave um vídeo tocando Surreal e mande pra gente!

    00:00 / 00:00
    outros vídeos desta música
    repetir qualidade Automático
    Outros vídeos desta música
    00:00 / 00:00
    Automático
    Capítulos
    • Tocando a música
    • Dicas Iniciais / Equipamentos
    • Acordes da Primeira Parte
    • Tocando Introdução e Primeira Parte
    • Introdução e Primeira Parte - Parte 1 de 7
    • Introdução e Primeira Parte - Parte 2 de 7
    • Introdução e Primeira Parte - Parte 3 de 7
    • Introdução e Primeira Parte - Parte 4 de 7
    • Introdução e Primeira Parte - Parte 1 de 7
    • Primeira Parte - Parte 2 de 7
    • Primeira Parte - Parte 3 de 7
    • Primeira Parte - Parte 4 de 7
    • Primeira Parte - Parte 5 de 7
    • Primeira Parte - Parte 6 de 7
    • Primeira Parte - Parte 7 de 7
    • Acordes da Segunda Parte
    • Tocando a Segunda Parte
    • Ritmo da música
    • Acordes do Refrão
    • Tocando o Refrão
    • Acordes da Terceira Parte
    • Tocando a Terceira Parte
    • Acordes do Final
    • Tocando o Final
    • Ritmo do Final
    • Encerramento
    • Ficha Técnica

    Cifra Club Pro

    Aproveite o Cifra Club com benefícios exclusivos e sem anúncios
    7 dias grátis
    Cifra Club Pro
    Aproveite o Cifra Club com benefícios exclusivos e sem anúncios
    7 dias grátis
    OK