Cifra Club

Surreal

Scalene

Tab de bajo: Principal
EADG

Intro

G-----------------
D-----------------  X2
A-4----1---------3
E-----------4-----

pre refrao

(ter o mundo em minhas maos)

G----------------------------------
D----------------------------------
A-444444444444777777777788888888887
E----------------------------------

(tinha ao meu lado)

G--------------------------------------------------------------
D--------------------------------------------------------------
A-4444444444444444111111111111111---------------333333333333333 X2
E--------------------------------444444444444444---------------

Refrao

(Longe, alto)

G----------------------------------------------------------------
D-------------------------------------------------111111111111111
A---------------------------------3333333333333333---------------
E-44444444444444441111111111111111-------------------------------

pre refao 2

(A felicidade, acordamos só pra ter)

G--------------------------------------------------------------
D--------------------------------------------------------------
A-4444444444444444111111111111111---------------333333333333333 
E--------------------------------444444444444444---------------

depois do ter "Será ideal, ter o mundo em minhas mãos?" fica

G-----------------------------------
D-----------------------------------
A-----------------------------------
E-444444444444444/777777777777777777


Refao 2

G----------------------------------------------------
D---------------------------------------------------1
A-----------------------------------3---------------- X2
E-4-----------------1---------------1----------------
 


Na parte "Seja qual for o final" fica

G-------------------------------------------
D-------------------------------------------
A-------------------------------------------
E-111111111111111111111111111111111111111111

fica assim ate chegar a parte q se parece com o começo

Final

G-----------------
D-----------------  
A-4----1---------3
E-----------4-----
Composición de Gustavo Bertoni / Tomás Bertoni
Colaboración y revisión:
  • Carlos Way
  • gabriel paula
39 vistas

0 comentarios

Ver todos los comentarios

¿Lograste tocar?

8 Tocaron 0 Aún no

¡Graba un video tocando Surreal y envíanoslo!

00:00 / 00:00
Outros vídeos desta música
Repetir Calidad Automático
Outros vídeos desta música
00:00 / 00:00
Automático
OK