Cifra Club

Aprenda

Tiro Cego

Scalene

Tablatura: Principal (guitarra)
Tom: C
Gm     Dm F
Sono se foi
Gm           Dm F
Eu escuto sua voz
Gm            Dm F
Clichês de um adeus
Gm             Dm F
Sem porquê tão veloz
Cm      Dm  Eb
Só o que fiz certo
             F
Foi deixa-la ir

Gm       Eb Bb             A/Bb
Tempos depois sei que haverá
Gm       Eb Bb        Bb/A
Algo em nos revolverá
F            Bb
Não é um tiro cego
F    Dm     Bb     Gm
Te protejo atiro em mim

E|----------------------------6-5--------------------|
B|-4-3------------------------------6-8---------3b---|
G|-----5-3-5/7---------5/7~-------7------5-3-2-------|
D|-------------5/3-3/5-------------------------------|
A|---------------------------------------------------|
E|---------------------------------------------------|

Gm      Dm   F
Um peso abismal
Gm             Dm  F
Em meus ombros caiu
Gm           Dm
Um minuto fatal
      F   Gm              Dm  F
Que o meu autocontrole não viu
Cm            Dm   Eb
O que fiz de errado
             F
Postergar o fim

Gm       Eb Bb             A/Bb
Tempos depois sei que haverá
Gm       Eb Bb        Bb/A
Algo em nos revolverá
F            Bb
Não é um tiro cego
F    Dm     Bb     Gm    Eb Cm Gm
Te protejo atiro em mim (em mim....)

E|-13--------13-------13-------13----------11-10-------10-------10-------10-------10-------|
B|----11--------11-------11-------11----13-------11-------11-------11-------11-------11----|
G|-------12--------12-------12-------12-------------12-------12-------12-------12-------12-|
D|-----------------------------------------------------------------------------------------|
A|-----------------------------------------------------------------------------------------|
E|-----------------------------------------------------------------------------------------|

E|-13--------13-------13-------13----------11-10-------10-------10-------10-------10-------------15-------15-------15-------13-------13--|
B|----11--------11-------11-------11----13-------11-------11-------11-------11-------11-------13-------13-------13-------13-------13-----|
G|-------12--------12-------12-------12-------------12-------12-------12-------12-------12/14-------14-------14-------14-------14--------|
D|---------------------------------------------------------------------------------------------------------------------------------------|
A|---------------------------------------------------------------------------------------------------------------------------------------|
E|---------------------------------------------------------------------------------------------------------------------------------------|

Gm       Eb Bb             A/Bb
Tempos depois sei que haverá
Gm       Eb Bb        Bb/A
Algo em nos revolverá
F            Bb
Não é um tiro cego
F      Dm     Bb     Gm
Sem um alvo sem um fim
          Eb
Mesmo tão incerto
F    Dm     Bb     Gm
Te protejo atiro em mim

E|-------10--------------------10---------------------------------------------------------------|
B|----11-------------11-----11-------------11--------11----------------------11-------11-11/14--|
G|-12-------12-10-12-----12-------12-10-12-----10-12----12--------------10-12---12-10-----------|
D|---------------------------------------------------------12-12-12-12--------------------------|
A|----------------------------------------------------------------------------------------------|
E|----------------------------------------------------------------------------------------------|
Compositor Gustavo Bertoni
111 reproducciones
    • ½ Tom
    • A
    • Bb
    • B
    • C
    • Db
    • D
    • Eb
    • E
    • F
    • F#
    • G
    • Ab
  • Adicionar à lista

    0 comentarios

    Mostrar mais comentários

    ¿Conseguiste tocar?

    9 Tocaron 7 Ainda não

    Grave um vídeo tocando Tiro Cego e mande pra gente!

    00:00 / 00:00
    outros vídeos desta música
    repetir qualidade Automático
    Outros vídeos desta música
    00:00 / 00:00
    Automático

    Cifra Club Pro

    Aproveite o Cifra Club com benefícios exclusivos e sem anúncios
    7 dias grátis
    Cifra Club Pro
    Aproveite o Cifra Club com benefícios exclusivos e sem anúncios
    7 dias grátis
    OK