Cifra Club

Aprenda

Trans Aparecer

Scalene

Tablatura: Principal (guitarra)
Tom: Bb (con acordes en la forma de C) Afinação: D G C F A D
Drop C
Introdução:Riff 1

Riff 1:
D|----------------------------------|-------------------|
A|---------------------------------|----------------------------|
F|------------------------------|----------------------|
C|--------------------------------|----------------------------|
G|---------------10-X------12----------------|----------------------------|
C|-0-0-12-X-10-X------15-X-----------------------|----------------------------|

Riff 2:
D|----------------------------------|-------------------|
A|---------------------------------|----------------------------|
F|-17-15---------------------------|----------------------|
C|-------17-17-15h17s19-----------------------|----------------------------|
G|----------------------17----------------|----------------------------|
C|-----------------------------------|----------------------------|

Riff 3
D|--------------------------------------|-------------------|
A|--------------------------------------|----------------------------|
F|-17-15--------------------------------|----------------------|
C|-------17-17-15h15b21--15-15-15h17b20-|--------------------------------------------|
G|--------------------------------------|----------------------------------|
C|--------------------------------------|-----------------------|

Riff 4
D|-----------------------------------------------------|
A|------------------------------------------------------------|
F|----------------------------------------------------|
C|------------------------------------------------------------|
G|---------------10-------12-------12-------------------------------------|
C|-12s0-0-10-12-----15-15 ---12s0--------------------|----------------------------|
   
Riff 1
No contexto ideal
Somos parte não o total
Maquiar, formatar, se esconder não é opção Riff 2

Riff 1
Quem não vê pode ser
Que não queira mesmo aceitar
Não importa o canal
Desaguamos no mesmo lugar
                   Riff 3
Formulas formatam o sentido é uma prisão
Riff 3
Disfarçam o que é errado e o foco vira distração
C5   G5   F5    G#5
Eu sei algo transparece
C5   G5   F5    G#5
Dentro de quem se permite ver Riff 4

Riff 1
Descansa, desliga a chave não somos crianças
Fique à vontade pra fazer Riff 4
Riff 3
Monte suas histórias não espere alguém contar
Riff 3
Junte suas memórias não espere alguém montar
C5   G5   F5    G#5
Eu sei algo transparece
C5   G5   F5    G#5
Dentro de quem se permite ver 

Sejamos livres pra ser

C5   G5   F5    G#5
Eu sei algo transparece
C5   G5   F5    G#5
Dentro de quem se permite ver 
C5   G5   F5    G#5
Eu sei algo transparece
C5   G5   F5    G#5
Dentro de quem se permite ver Riff 4 

EU SEI ALGO TRANSPARECE
DENTRO DE QUEM SE PERMITE VER Riff 1 (loko)
Compositor Gustavo Bertoli, Leo Ramos, Thomas Bertoli
Colaboración y revision:
  • Leo Vilela
15 reproducciones
    • ½ Tom
    • A
    • Bb
    • B
    • C
    • Db
    • D
    • Eb
    • E
    • F
    • F#
    • G
    • Ab
  • Adicionar à lista

    0 comentarios

    Mostrar mais comentários

    ¿Conseguiste tocar?

    0 Tocaron 0 Ainda não

    Grave um vídeo tocando Trans Aparecer e mande pra gente!

    00:00 / 00:00
    outros vídeos desta música
    repetir qualidade Automático
    Outros vídeos desta música
    00:00 / 00:00
    Automático

    Cifra Club Pro

    Aproveite o Cifra Club com benefícios exclusivos e sem anúncios
    7 dias grátis
    Cifra Club Pro
    Aproveite o Cifra Club com benefícios exclusivos e sem anúncios
    7 dias grátis
    OK