Cifra Club

Masterpiece

Scandal

Cifrado: Principal (guitarra y guitarra eléctrica)
Selo Cifra Club: esta cifra foi revisada para atender aos critérios oficiais da nossa Equipe de Qualidade.
tono: A
[Intro]

E|-----------------------------------------------------------|
B|-----------------------------------------------------------|
G|-----------------------------------------------------------|
D|-------4---------4-----------------4---------4-------------|
A|-----------------------------------------------------------|
E|--2--0----0-2--0----0-2-0-0-0-2--0----0-2--0----0-2-0-0-0--| ​

E|-----------------------------------------------------------|
B|-----------------------------------------------------------|
G|-----------------------------------------------------------|
D|-------4---------4-----------------4---------4-------------|
A|-----------------------------------------------------------|
E|--2--0----0-2--0----0-2-0-0-0-2--0----0-2--0----0-2-0-0-0--| ​

E|-----------------------------------------------------------|
B|-----------------------------------------------------------|
G|-----------------------------------------------------------|
D|-------4---------4-----------------4---------4-------------|
A|-----------------------------------------------------------|
E|--2--0----0-2--0----0-2-0-0-0-2--0----0-2--0----0-2-0-0-0--| ​

E|-----------------------------------------------------------|
B|-----------------------------------------------------------|
G|-----------------------------------------------------------|
D|-------4---------4-----------------4---------4-------------|
A|-----------------------------------------------------------|
E|--2--0----0-2--0----0-2-0-0-0-2--0----0-2--0----0-2-0-0-0--| ​

F#          Em               B        C#
Hajimari no aizu wa itsudemo totsuzen narihibiite
F#          Em        B
Hashiridasu kodou mou tomerarenai wa

( C# )

Fm      C#m11/F#             B9/G         C#9/A
Tatoeba ijiwaru na dareka ni warareta toshitemo 
F#                   F#m11       B      C#
Donkan de junshin na furi shite idomitai

Bb4/Eb                  D5(9)      D
Machiwabita toki wa ima! atarashii doa wo hiraku
C#                     C               B
Kooritsuita kokoro wo tokashite kureru merodi
Eb      C# B
Kuchizusande  
G#           A   B
 Kimi ni mo todoketai

( B )

F#            C#    B    F#              D            B
Kaze ni notte tonde yuke kisetsu ni saku hana no you ni
Bbm        D           B                  G#m
Yurenagara sagashiteta yorokobi ni deaeru uta wo
C#
Wasurenaide

F#         C#      B      F#              C#          B
Ikutsumono hibi wo koete houseki ni naru kimi no namida yeah
Bb4/Eb   C#       B                     G#m
Yoru ni oite kita negaigoto wo mukae ni yukou
          C#
Mabashiku kagayaiteru asahi no hou e

E|-----------------------------------------------------------|
B|-----------------------------------------------------------|
G|-----------------------------------------------------------|
D|-------4---------4-----------------4---------4-------------|
A|-----------------------------------------------------------|
E|--2--0----0-2--0----0-2-0-0-0-2--0----0-2--0----0-2-0-0-0--|

E|-----------------------------------------------------------|
B|-----------------------------------------------------------|
G|-----------------------------------------------------------|
D|-------4---------4-----------------4---------4-------------|
A|-----------------------------------------------------------|
E|--2--0----0-2--0----0-2-0-0-0-2--0----0-2--0----0-2-0-0-0--| ​

F#          E               B            C#
Ameagari no sora ni niji ga kakaru to wa kagiranai
F#             E        B                C#
Demo utsumuite bakka ja minogashichau wa
F#                      C#m11/F# F#4/B   C#m11/F# E4(7)/Bb
You wa donna shunkan mo hinto ni dekiru  mugen no souzouryoku 

F#               C#m11/                B      C#
More junbibantan please me! please me! kami-sama
Bb4/Eb                     D
Machigai mo seikai mo nai jibun dake no chizu wo egaku
C#                      C                   B
Tsumiagete kita mono wo kowashite tadoritsuita
Bb4/Eb     C#   B
Keshiki ga aru

( C )

F#        B        F#
Tsutaetai kanaetai mamoritai uso ja nai
C#                     Bb4/Eb C#
Mezashiteta mirai made ato    sukoshi
F#      B        F#   C#       Bb4/Eb
Yowaki na jibun ni    maketakunai yo
F#         B    F#           G#4/C#  B
Nanmankai datte hikari ni te wo nobasou

( B )

F#          C#    B    F#       C#       B
Sekaijuu ni tonde yuke anata ni utatteru yo
B4/E          E4(7)/Bb  B9/G                 F#
Mune ippai ni afuredasu umaretate no yorokobi wo
G#   C#
Dakishimete
F#         C#         B
Ikutsumono hibi wo koete
F#            C#             B
Utaeru yo ima kono "masutaapiisu" yeah
Bb4/Eb    D      B                     G#m
Yoru ga owattara negaigoto wo kanae ni yukou
      E4(7)/Bb
Dokomademo tsuzuiteiku tabiji no mukou e

Tabiji no mukou e

E|-----------------------------------------------------------|
B|-----------------------------------------------------------|
G|-----------------------------------------------------------|
D|-------4---------4-----------------4---------4-------------|
A|-----------------------------------------------------------|
E|--2--0----0-2--0----0-2-0-0-0-2--0----0-2--0----0-2-0-0-0--|

E|-----------------------------------------------------------|
B|-----------------------------------------------------------|
G|-----------------------------------------------------------|
D|-------4---------4-----------------4---------4-------------|
A|-----------------------------------------------------------|
E|--2--0----0-2--0----0-2-0-0-0-2--0----0-2--0----0-2-0-0-0--|

E|-----------------------------------------------------------|
B|-----------------------------------------------------------|
G|-----------------------------------------------------------|
D|-------4---------4-----------------4---------4-------------|
A|-----------------------------------------------------------|
E|--2--0----0-2--0----0-2-0-0-0-2--0----0-2--0----0-2-0-0-0--|

E|-----------------------------------------------------------|
B|-----------------------------------------------------------|
G|-----------------------------------------------------------|
D|-------4---------4-----------------4---------4-------------|
A|-----------------------------------------------------------|
E|--2--0----0-2--0----0-2-0-0-0-2--0----0-2--0----0-2-0-0-0--|
Otros videos de esta canción
    19 exhibiciones
      • ½ Tono
      • A
      • Bb
      • B
      • C
      • Db
      • D
      • Eb
      • E
      • F
      • F#
      • G
      • Ab
    • Agregar a la lista

    Afinação da cifra

    Afinador online

      Ops (: Contenido disponible solo en portugués.
      OK