Cifra Club

So Easy

Scandal

Tab de bajo: Principal
Selo Cifra Club: esta cifra foi revisada para atender aos critérios oficiais da nossa Equipe de Qualidade.
0:07
|---------------------------------------|
|---------------------------------------|
|-----------5-03-034-5-5-5-7\5-3(x5)----|
|--5-03-035--------------------------3--|

|--------------------|  <|--
|--------------------|   |Play
|----------5-03-033--|   |2 Times
|--5-03-03-----------|  <|--

|--------------------------------------|
|--------------------------------------|
|----------5-03-034-5-5-5-7\5-3(x5)----|
|--5-03-03--------------------------3--|

|--------------------|  <|--
|--------------------|   |Play
|----------5-03-033--|   |2 Times
|--5-03-03-----------|  <|--

|---------------------------------------------------------|
|---------------------------------------------------------|
|----------5-03-034-5-5-5-7\5--3(x5)----3(x4)-3/10-10-10--|
|--5-03-03--------------------------3-5-------------------|

0:45
|------------------------------------------------|
|------------------------------------------------|
|--3(x4)-----------3(x5)-------------5(x4)-------|
|-------1(x5)-3(x4)------3(x4)-5(x5)------3(x5)--|

|-------------------------------------------------------------------------|
|-------------------------------------------------------------------------|
|--3(x4)-----------3(x5)--------------------------------------------------|
|-------1(x5)-3(x4)------3(x4)-5(x5)-1(x4)-3(x4)-1(x8)-3(x8)-1(x8)-3(x8)--|

1:07
|---------------------------------------|
|---------------------------------------|
|-----------5-03-034-5-5-5-7\5-3(x5)----|
|--5-03-035--------------------------3--|

|--------------------|  <|--
|--------------------|   |Play
|----------5-03-033--|   |2 Times
|--5-03-03-----------|  <|--

|--------------------------------------|
|--------------------------------------|
|----------5-03-034-5-5-5-7\5-3(x5)----|
|--5-03-03--------------------------3--|

|--------------------|  <|--
|--------------------|   |Play
|----------5-03-033--|   |2 Times
|--5-03-03-----------|  <|--

|------------------------------|
|------------------------------|
|--------------5(x4)-3-3-3-4\--|
|--5(x4)-3(x4)-----------------|

|-----------------------------|
|-----------------------------|
|--3(x5)----3(x4)-3/10-10-10--|
|-------3-5-------------------|

1:46
|------------------------------------------------|
|------------------------------------------------|
|--3(x4)-----------3(x5)-------------5(x4)-------|
|-------1(x5)-3(x4)------3(x4)-5(x5)------3(x5)--|

|-------------------------------------------------------------------------|
|-------------------------------------------------------------------------|
|--3(x4)-----------3(x5)--------------------------------------------------|
|-------1(x5)-3(x4)------3(x4)-5(x5)-1(x4)-3(x4)-1(x8)-3(x8)-1(x8)-3(x8)--|

2:07
|---------------13h15-13--|
|----------10h12----------|
|--0~ /12-----------------|
|-------------------------|

|--------------------------------|
|--14-12-11-12-14----------------|
|-----------------14-12-11-10-9--|
|--------------------------------|

|-----------------------------------------------|
|--------------------------------------------3--|
|--12-11-10-9\--12(x4)-11(x4)-10(x4)-9-9-9\5----|
|-----------------------------------------------|

|----------------------------------------------------|
|----------------------------------------------------|
|------3(x4)-----------3(x5)-------------5(x4)-------|
|-/10\------1(x5)-3(x4)------3(x4)-5(x5)------3(x5)--|

|-------------------------------------------------------------------------|
|-------------------------------------------------------------------------|
|--3(x4)-----------3(x5)--------------------------------------------------|
|-------1(x5)-3(x4)------3(x4)-5(x5)-1(x4)-3(x4)-1(x8)-3(x8)-1(x8)-3(x8)--|

|-----------|
|--3(x8)-5--|
|-----------|
|-----------|

3:12
|----------------------------------|
|----------------------------------|
|---------5h6h7-0-54-0-0h3h4-------|
|--5(x12)------7------------5~ 5\--|
Otros videos de esta canción
    77 exhibiciones

    Afinação da cifra

    Afinador online

    Ops (: Contenido disponible solo en portugués.
    OK