Cifra Club

Im Your Pusher

Scooter

Cifrado: Principal (guitarra y guitarra eléctrica)
Selo Cifra Club: esta cifra foi revisada para atender aos critérios oficiais da nossa Equipe de Qualidade.
tono: E
["Pipe" solo]
E|--0----2---0----2---0--2-4-5--4-2-7---9--------------------------------------|
B|----0----4---0----4---------------------9-10-----12-10-9---------------------|
G|---------------------------------------------11----------9-------------------|
D|-----------------------------------------------------------------------------|
A|-----------------------------------------------------------------------------|
E|-----------------------------------------------------------------------------|

E|-----------4-7--4-2-0--------------------------------------------------------|
B|----9-7--7-------------------------------------------------------------------|
G|--9--------------------------------------------------------------------------|
D|-----------------------------------------------------------------------------|
A|-----------------------------------------------------------------------------|
E|-----------------------------------------------------------------------------|
Otros videos de esta canción
    0 exhibiciones
      • ½ Tono
      • A
      • Bb
      • B
      • C
      • Db
      • D
      • Eb
      • E
      • F
      • F#
      • G
      • Ab
    • Agregar a la lista

    Afinação da cifra

    Afinador online

      Ops (: Contenido disponible solo en portugués.
      OK