Cifra Club

Always Somewhere

Scorpions

Cifrado: Principal (guitarra y guitarra eléctrica)
tono: C
Introdução: C  G  ( F7M(6)  Em7 )  Am

(Parte 1 - 2x)

   C               G
E|-------------------3-----3----------------|
B|---1-----1-----0-----0-----0---0----------|
G|-----0-----0-----------0-----0------------|
D|-------2-----2----------------------------|
A|-3----------------------------------------|
E|-----------------3------------------------|

   F7M(6)  Em7     Am
E|---0-------0--------0-----0---------------|
B|-----3-------3--------1-------------------|
G|-------2-------0--------2-----------------|
D|-3-------2--------------------------------|
A|-----------------0-----------0-2----------|
E|------------------------------------------|

(Parte 2)

   C               G
E|-------------------3-----3----------------|
B|---1-----1-----0-----0-----0---0----------|
G|-----0-----0-----------0-----0------------|
D|-------2-----2----------------------------|
A|-3----------------------------------------|
E|-----------------3------------------------|

   F7M(6)  Em7     Am
E|---0-------0--------------0---------------|
B|-----3-------3------0h1-------------------|
G|-------2-------0--------2-----------------|
D|-3-------2--------------------------------|
A|-----------------0-----------0-2----------|
E|------------------------------------------|

(Parte 3 - 2x)

   C               G
E|-------------------3-----3----------------|
B|---1-----1-----0-----0-----0---0----------|
G|-----0-----0-----------0-----0------------|
D|-------2-----2----------------------------|
A|-3----------------------------------------|
E|-----------------3------------------------|

   F7M(6)  Em7     Am
E|---0-------0--------0-----0---------------|
B|-----3-------3--------1-------------------|
G|-------2-------0--------2-----------------|
D|-3-------2--------------------------------|
A|-----------------0-----------0-2----------|
E|------------------------------------------|

(Parte 4)

   C               G
E|-------------------3-----3----------------|
B|---1-----1-----0-----0-----0---0----------|
G|-----0-----0-----------0-----0------------|
D|-------2-----2----------------------------|
A|-3----------------------------------------|
E|-----------------3------------------------|

   Am
E|---------0-----0-----0--------------------|
B|---0-1-----1-----1-----1------------------|
G|-------2-----2-----2-----2----------------|
D|------------------------------------------|
A|-0---------------------------0-2----------|
E|------------------------------------------|

(Guitarra Solo)

E|------------------------------------------------------|
B|------------------------------------------------------|
G|-7b9----7~---b5r4b5r4\2~~-----------------------------|
D|------------------------------------------------------|
A|------------------------------------------------------|
E|------------------------------------------------------|

E|------------------------------------------------------|
B|-------------8b10~~-----------------------------------|
G|-7b9----7~--------------------------------------------|
D|------------------------------------------------------|
A|------------------------------------------------------|
E|------------------------------------------------------|

 
Primeira Estrofe:

   C               G
E|-------------------3-----3----------------|
B|---1-----1-----0-----0-----0---0----------|
G|-----0-----0-----------0-----0------------|
D|-------2-----2----------------------------|
A|-3----------------------------------------|
E|-----------------3------------------------|

   F7M(6)  Em7     Am
E|---0-------0--------0-----0---------------|
B|-----3-------3--------1-------------------|
G|-------2-------0--------2-----------------|
D|-3-------2--------------------------------|
A|-----------------0-----------0-2----------|
E|------------------------------------------|

   C               G
E|-------------------3-----3----------------|
B|---1-----1-----0-----0-----0---0----------|
G|-----0-----0-----------0-----0------------|
D|-------2-----2----------------------------|
A|-3----------------------------------------|
E|-----------------3------------------------|

   Am
E|----0-----0-----0-----0-------------------|
B|------1-----1-----1-----1-----------------|
G|--------2-----2-----2-----2---------------|
D|------------------------------------------|
A|-0---------------------------0-2----------|
E|------------------------------------------|

C            G
  Arrive at seven 
      F7M(6)  Em7   Am
The place    feels good
C             G          Am
  No time to call you today
C               G
  Encore till eleven
       F7M(6)  Em7  Am
Then Chi______nese food
C              G      Am
  Back to the hotel again

C  G  ( F7M(6)  Em7 )  Am

C  G  Am

E|-15p13p12~---13p12p10~--------------------------------|
B|------------------------------------------------------|
G|------------------------------------------------------|
D|------------------------------------------------------|
A|------------------------------------------------------|
E|------------------------------------------------------|

E|-5--7--b8r--7-----------------------------------------|
B|---------------b10r9b10~------------------------------|
G|------------------------------------------------------|
D|------------------------------------------------------|
A|------------------------------------------------------|
E|------------------------------------------------------|

E|-15p13p12~---15p13------------------------------------|
B|-------------------12~--------------------------------|
G|------------------------------------------------------|
D|------------------------------------------------------|
A|------------------------------------------------------|
E|------------------------------------------------------|

E|-15b17~---15b17--15--13--12~--------------------------|
B|------------------------------------------------------|
G|------------------------------------------------------|
D|------------------------------------------------------|
A|------------------------------------------------------|
E|------------------------------------------------------|


Segunda Estrofe:

   C               G
E|-------------------3-----3----------------|
B|---1-----1-----0-----0-----0---0----------|
G|-----0-----0-----------0-----0------------|
D|-------2-----2----------------------------|
A|-3----------------------------------------|
E|-----------------3------------------------|

   F7M(6)  Em7     Am
E|---0-------0--------------0---------------|
B|-----3-------3------0h1-------------------|
G|-------2-------0--------2-----------------|
D|-3-------2--------------------------------|
A|-----------------0-----------0-2----------|
E|------------------------------------------|

   C               G
E|-------------------3-----3----------------|
B|---1-----1-----0-----0-----0---0----------|
G|-----0-----0-----------0-----0------------|
D|-------2-----2----------------------------|
A|-3----------------------------------------|
E|-----------------3------------------------|

   Am
E|----0-----0-----0-----0-------------------|
B|------1-----1-----1-----1-----------------|
G|--------2-----2-----2-----2---------------|
D|------------------------------------------|
A|-0---------------------------0-2----------|
E|------------------------------------------|

   C               G
E|-------------------3-----3----------------|
B|---1-----1-----0-----0-----0---0----------|
G|-----0-----0-----------0-----0------------|
D|-------2-----2----------------------------|
A|-3----------------------------------------|
E|-----------------3------------------------|

   F7M(6)  Em7     Am
E|---0-------0--------0-----0---------------|
B|-----3-------3--------1-------------------|
G|-------2-------0--------2-----------------|
D|-3-------2--------------------------------|
A|-----------------0-----------0-2----------|
E|------------------------------------------|

   C               G
E|-------------------3-----3----------------|
B|---1-----1-----0-----0-----0---0----------|
G|-----0-----0-----------0-----0------------|
D|-------2-----2----------------------------|
A|-3----------------------------------------|
E|-----------------3------------------------|

   Am
E|----0-----0-----0-----0-----0-------------|
B|------1-----1-----1-----1-----1-----------|
G|--------2-----2-----2-----2---------------|
D|------------------------------------------|
A|-0----------------------------------------|
E|------------------------------------------|

C              G
  I call your number 
     F7M(6)  Em7     Am
The line     ain't free
C           G                   Am
  I like to   tell you come to me
C                  G
  A night without you 
 F7M(6)    Em7          Am
Seems like     a lost dream
C               G              Am
  Love I can't tell you how I feel


Primeiro Refrão:

C5         G5
   Always somewhere
A5
   Miss you where I've been
F5          G5                C5  G5
   I'll be back to love you again
C5         G5
   Always somewhere
A5
   Miss you where I've been
F5          G5                C5  G5
   I'll be back to love you again


Solo: C  G  ( F7M(6)  Em7 ) Am

E|-10b12~---10---7-8b10r--8b10r8p7p5--7--5~-------------|
B|------------------------------------------------------|
G|------------------------------------------------------|
D|------------------------------------------------------|
A|------------------------------------------------------|
E|------------------------------------------------------|

E|-----5------------------------------------------------|
B|-5-----5-8-8b10~---8b10--8--6--5~---------------------|
G|---5--------------------------------------------------|
D|------------------------------------------------------|
A|------------------------------------------------------|
E|------------------------------------------------------|

E|------------------------------------------------------|
B|------------------------------------------------------|
G|-7b9r7p5---5--7--7b9----------------------------------|
D|---------7------------7-------------------------------|
A|------------------------------------------------------|
E|------------------------------------------------------|

E|-12--15--15b17~---15b17--13--12-----------------------|
B|---------------------------------13-------------------|
G|------------------------------------------------------|
D|------------------------------------------------------|
A|------------------------------------------------------|
E|------------------------------------------------------|

E|-----5--7b8r7--5--------------------------------------|
B|-/5---------------5-----------------------------------|
G|---------------------5~-------------------------------|
D|------------------------------------------------------|
A|------------------------------------------------------|
E|------------------------------------------------------|

E|-------------b10r8------------------------------------|
B|-----8b10~~---------8--20-----------------------------|
G|-7p5--------------------------------------------------|
D|------------------------------------------------------|
A|------------------------------------------------------|
E|------------------------------------------------------|

E|-b12r10----10b12--10--8-------------------------------|
B|-------------------------10~--------------------------|
G|------------------------------------------------------|
D|------------------------------------------------------|
A|------------------------------------------------------|
E|------------------------------------------------------|

Terceira Estrofe:

C          G
  Another morning 
  F7M(6)  Em7  Am
Ano_____ther place
C           G               Am
  The only day off is far away
C            G
  But every city 
     F7M(6)  Em7        Am
Has seen me      in the end
C                G       Am
  And brings me to you again


Segundo Refrão:

C5         G5
   Always somewhere
A5
   Miss you where I've been
F5          G5                C5  G5
   I'll be back to love you again


Riffs do Segundo Refrão:

E|------------------------------------------------------|
B|------------------------------------------------------|
G|-7b9r7b9r7p5---5--------------------------------------|
D|-------------7---7------------------------------------|
A|------------------------------------------------------|
E|------------------------------------------------------|

E|------------------------------------------------------|
B|------------------------------------------------------|
G|-7b9r7b9~---------------------------------------------|
D|------------------------------------------------------|
A|------------------------------------------------------|
E|------------------------------------------------------|


Final: C  G  ( F7M(6)  Em7 ) Am

E|------------------------------------------------------|
B|-----10----10----------8----8-----------15-----15-----|
G|-/9-----9-----9\---/7----7----7\---/14-----14-----14--|
D|------------------------------------------------------|
A|------------------------------------------------------|
E|------------------------------------------------------|

E|------------------------------------------------------|
B|-15-15\13---------------------------------------------|
G|-14-14\12---------------------------------------------|
D|------------------------------------------------------|
A|------------------------------------------------------|
E|------------------------------------------------------|

E|------------------------------------------------------|
B|-----10------10---------------------------------------|
G|-/9-----9-------9\7--5--------------------------------|
D|------------------------------------------------------|
A|------------------------------------------------------|
E|------------------------------------------------------|

E|------------------------------------------------------|
B|------------------------------------------------------|
G|-5h7--5h7p5-------------------------------------------|
D|-5----5------7--5--5----5-----------------------------|
A|-------------------5h7--5h7p5\3--5--------------------|
E|------------------------------------5-----------------|
00:00 / 00:00
Otros videos de esta canción
Repetir
Otros videos de esta canción
Composición de Klaus Meine / Rudolf Schenker
Colaboración y revisión:
  • Vinícius Dias
  • Aline Bizetto
  • Renan Paradella
9.958 vistas
    • ½ Tono
    • A
    • Bb
    • B
    • C
    • Db
    • D
    • Eb
    • E
    • F
    • F#
    • G
    • Ab
  • Agregar a la lista

    0 comentarios

    Ver todos los comentarios

    ¿Lograste tocar?

    53 Tocaron 5 Aún no

    ¡Graba un video tocando Always Somewhere y envíanoslo!

    00:00 / 00:00
    Capítulos
    • Tocando a Música
    • Dicas iniciais / Equipamentos
    • Introdução 1 e 2
    • Introdução - Parte 1 de 4
    • Introdução - Parte 2 de 4
    • Introdução - Parte 3 de 4
    • Introdução - Parte 4 de 4
    • Introdução - Guitarra Solo
    • Dicas Primeira Estrofe
    • Primeira Estrofe
    • Ensinando Primeira Estrofe
    • Solo da Primeira Estrofe
    • Dicas Segunda Estrofe e Refrão
    • Tocando Primeiro Refrão
    • Ensinando Primeiro Refrão
    • Dicas Solo Principal
    • Tocando Solo Principal
    • Solo - Parte 1 de 4
    • Solo - Parte 2 de 4
    • Solo - Parte 3 de 4
    • Solo - Parte 4 de 4
    • Dicas Terceira Estrofe e Segundo Refrão
    • Tocando Terceira Estrofe e Segundo Refrão
    • Ensinando Final - Parte 1 de 2
    • Ensinando Final - Parte 2 de 2
    • Dicas Finais / Encerramento
    • Ficha Técnica
    OK