Cifra Club

Holiday

Scorpions

Cifrado: Principal (guitarra y guitarra eléctrica)
Selo Cifra Club: esta cifra foi revisada para atender aos critérios oficiais da nossa Equipe de Qualidade.
tono: F
Dedilhado 1:
E|---1-------1------1-----1-----1------0----1-----1---------0-----0-----------|
B|-----3-------3------------3-----3-----------3-----3---------3-----3---------|
G|-------2-------2------------2-----2-----------2-----2---------2-----2-------|
D|-0------------------------------------------------------2-------------------|
A|---------------------3------------------1-----------------------------------|
E|----------------------------------------------------------------------------|

E|------5---------5-------5---------------------------------------------------|
B|---------5---------5--------------------------------------------------------|
G|------------2---------2-----------------------------------------------------|
D|--2-------------------------------------------------------------------------|
E|----------------------------------------------------------------------------|
E|----------------------------------------------------------------------------|

Solo:
E|---------------------------------------------------------------------------------------|
B|-----------------------------------------------9-8--5-6-3----5-6-3-5-6-3---------------|
G|---------------------------7-7-9-10-7--9-10-9-------------2---------------2-0----------|
D|----0-3--5/7--5-2--5-3-5-5/7-----------------------------------------------------------|
A|---------------------------------------------------------------------------------------|
E|---------------------------------------------------------------------------------------|

E|-------------------------------------------------------------------------|
B|----------------------------------------8-10-----------------------------|
G|---------------------------7----7-9-10-----------------------------------|
D|---2-3-5--5/7-5-3-5/7----7---7-------------------------------------------|
A|----------------------5--------------------------------------------------|
E|-------------------------------------------------------------------------|

Dm
Let me take you far away
       C     A      Dm
You'd like a holiday
Dm
Let me take you far away
       C     A       Dm
You'd like a holiday
              C             Dm
Exchange the cold days for the sun
  G          A
A good time and fun
Dm
Let me take you far away
      C      A     Dm
You'd like a holiday

Dm
Let me take you far away
       C     A      Dm
You'd like a holiday
Dm
Let me take you far away
       C    A      Dm
You'd like a holiday
              C                 Dm
Exchange your troubles for some love
G            A
Wherever you are
Dm
Let me take you far away
      C      A     Dm
You'd like a holiday

                 D5
Longing for the sun you will come
       C5             A#5
To the island without name
                D5
Longing for the sun be welcome
           C5              A#5
On the island many miles away from home
D5                C5             A5
Be welcome on the island without name
                D5
Longing for the sun you will come
       C5           A#5             D5
To the island many miles away from home

away from home
away from home
away from home
away from home
Otros videos de esta canción
    7.997 exhibiciones
      • ½ Tono
      • A
      • Bb
      • B
      • C
      • Db
      • D
      • Eb
      • E
      • F
      • F#
      • G
      • Ab
    • Agregar a la lista

    Afinação da cifra

    Afinador online

      Ops (: Contenido disponible solo en portugués.
      OK