Cifra Club

Humanity

Scorpions

Cifrado: Principal (guitarra y guitarra eléctrica)
Selo Cifra Club: esta cifra foi revisada para atender aos critérios oficiais da nossa Equipe de Qualidade.
tono: E
Intro:
 C#m A F#m G#
E|-------------------------------------------------------------------------------------|
B|-------------9---6/7---5-------7--9--10---9---6/7---5------7---5---7--5--------------|
G|---6--8--9-----------------6---------------------------6------------------8----------|
D|-------------------------------------------------------------------------------------|
A|-------------------------------------------------------------------------------------|
E|-------------------------------------------------------------------------------------|


Verso:
       C#m
      Humanity
      Auf wiedersehen
                           A
      It's time to say goodbye

      The party's over
              F#m
      As the laughter dies
          G#
      An angel cries
(dedilha até aqui, depois toca mais forte)
       C#m
      Humanity
                                  A
      It's au revoir to your insanity
                                        F#m
      You sold your soul to feed your vanity
                G#       C#m
      Your fantasies and lies

Refrão:
                      C#5
      You're a drop in the rain
                C#5
      Just a number not a name
                    F#5
      And you don't see it
                    F#5
      You don't believe it
             C#5
      At the end of the day
                C#5
      You're a needle in the hay
                      F#5
      You signed and sealed it
                         F#5
      And now you gotta deal with it
        A5   B5
      Humanity
        A5   B5
      Humanity
               C#5  C#5  A5  C#5  C#5  A5
      Goodbye
               C#5  C#5  A5  C#5
      Goodbye

         C#m
      Be on your way
                                     A
      Adios amigo there's a price to pay
                                        F#m
      For all the egotistic games you played
                     G#
      The world you made
         C#m
      Is gone

 Refrão:
            C#5
      You're a drop in the rain
                C#5
      Just a number not a name
                    F#5
      And you don't see it
                    F#5
      You don't believe it
             C#5
      At the end of the day
                C#5
      You're a needle in the hay
                      F#
      You signed and sealed it
                         F#
      And now you gotta deal with it
        A5   B5
      Humanity
        A5   B5
      Humanity
               C#5  C#5   C#5  C#5
      Goodbye
               C#5  C#5   C#5
      Goodbye

      C#5                              F#5
      Run and hide there's fire in the sky

      Stay inside
                         B5        G#5
      The water's gonna rise and pull you under
      C#5                             F#5
      In your eyes I'm staring at the end of time
                    B5
      Nothing can change us
                    G#5           A
      No one can save us from ourselves

Solo: C#m  A  F#  G#m  C#m
E|----------------------------------------------------------------------------------------------
B|----------------------------------------------------------------------------------------------
G|-------6--8--6-----------9--8--9--8--6--8--9--8--6----6--8--6---------9--8--9--8--6--8--9-----
D|---6-------------6------------------------------------------------------7---------------------
A|----------------------------------------------------------------------------------------------
E|----------------------------------------------------------------------------------------------

E|-------------------------------------------------------------------------11--12--11--12--11----
B|------7--9--7------------7--9--7-------------------------------------------------------14------
G|--9-------------6-----6-------------5-----6----8-----------13--14--13--12--13------------------
D|-----------------------------------------------------------------------------------------------
A|-----------------------------------------------------------------------------------------------
E|-----------------------------------------------------------------------------------------------

E|---12 / 16--14--------------------------14--17---17--16--14--16--------------------------------
B|--------------------17--16--15--14-------------------------------------------------------------
G|-----------------------------------------------------------------------------------------------
D|-----------------------------------------------------------------------------------------------
A|-----------------------------------------------------------------------------------------------
E|-----------------------------------------------------------------------------------------------



      You're a drop in the rain
                C#5
      Just a number not a name
                    F#5
      And you don't see it
                    F#5
      You don't believe it
             C#5
      At the end of the day
                C#5
      You're a needle in the hay
                      F#5
      You signed and sealed it
                         F#5
      And now you gotta deal with it
        A5   B5
      Humanity
        A5   B5
      Humanity
        A5   B5
      Humanity
               C#5  C#5  A5  C#5  C#5  A5
      Goodbye
               C#5  C#5   C#5  C#5
      Goodbye
               C#5  C#5   C#5  C#5
      Goodbye
               C#5  C#5   C#5  C#5
      Goodbye
Otros videos de esta canción
    2.237 exhibiciones
      • ½ Tono
      • A
      • Bb
      • B
      • C
      • Db
      • D
      • Eb
      • E
      • F
      • F#
      • G
      • Ab
    • Agregar a la lista

    Afinação da cifra

    Afinador online

      Ops (: Contenido disponible solo en portugués.
      OK