Cifra Club

Lorelei

Scorpions

Cifrado: Principal (guitarra y guitarra eléctrica)
Selo Cifra Club: esta cifra foi revisada para atender aos critérios oficiais da nossa Equipe de Qualidade.
tono: B
Intro:
   G#m                             C#m              F#
E|-4-------4-------4-------4-------4-------4-------2-------2---------|
B|-4---4---4---4---4---4---4---4---5---5---5---5---2---2---2---2-----|
G|-----4-------4-------4-------4-------6-------6-------3-------3-----|
D|---6---6---6---6---6---6---6---6---6---6---6---6---4---4---4---4---|
A|-------------------------------------------------------------------|
E|-------------------------------------------------------------------|
   G#m                             C#m              F# *let ring
E|-4-------4-------4-------4-------4-------4-------2-----------------|
B|-4---4---4---4---4---4---4---4---5---5---5---5---2-----------------|
G|-----4-------4-------4-------4-------6-------6---3-----------------|
D|---6---6---6---6---6---6---6---6---6---6---6---6-4-----------------|
A|-------------------------------------------------4-----------------|
E|-------------------------------------------------2-----------------|

G#m                                  D#m
There was a time when we sailed on together
D#7                                    G#m
once had a dream that we shared on the way
E                                        B  *Lick #1*
there was a place where we used to seek shelter
C#m               A                        D#
I never knew the pain of the price I would pay

G#m                               D#m *Lick #2*
You led me on with a cloak and a dagger
D#7                                  G#m *Lick #3*
and I didn't know you had made other plans
E                                         B *Lick #4*
and had me believe we were meant for forever
C#m                   A                          D#
I really thought my heart would be safe in your hands
     Lick #1      Lick #2   Lick #3     Lick#4
E|-------------|----------|-----------|------------|
B|-------------|----------|-----------|------------|
G|-------------|-6br~~----|--6br------|-----6b-----|
D|-----2~--4/6-|----------|------9-6~-|-6h9----9~~-|
A|-2h4---------|----------|-----------|------------|
E|-------------|----------|-----------|------------|

Refrão:
G#m
Lorelei
E              B
My ship has passed you by
                C#m
and though you promised me to show the way
D#
you led me astray
              G#m
you were my lorelei
E              B
what kind of fool was I
           C#m
cause I believed in every word you said
    D#
and now I wonder why
   G#m
Lorelei
E|------------------|-----------------|
B|------------------|--4h5~~p4--------|
G|-4~-4h6h8p4~------|----------4h6~~--|
D|-------------6~~--|-----------------|
A|------------------|-----------------|
E|------------------|-----------------|

G#m                                  D#m *Lick #2*
There was a time when we held one another
D#7                                    G#m  *Lick #3*
Bearing our souls in the light of the flame
E                                         B *Lick #4*
Those were the days now I've lost my illusions
C#m                       A                        D#
Sometimes I wake in the night and I call out your name

Refrão:
Bbm
Lorelei
F#            C#
My ship has passed you by
                  D#m
and though you promised me to show the way
F
you led me astray
              Bbm
you were my lorelei
F#            C#
what kind of fool was I
           D#m
Cause I believed in every word you said
     F
and now I wonder why
   Bbm
Lorelei
Solo:
E|--------------------------------9p8p6-----------------------------------|
B|-9br~~-6h7h9-----6h7h9----------------9br~~-6h7h9-----7p6---7p6---------|
G|-------------6~~-------6-8br----------------------6~~-----6-----6-6/8~~-|
D|------------------------------------------------------------------------|
A|------------------------------------------------------------------------|
E|------------------------------------------------------------------------|

G#m                                    D#m
now there's a light that shines on the river
D#7                          G#m *Lick #3*
Blinding my eyes from so far away
E                                        B *Lick #5*
Shot through the heart but now I know better
C#m                  A                        D# *Lick #6*
As hard as it is to resist the song that you play
         Lick #5       Lick #6
E|-------------------|------------------------------|
B|-------------------|------------------------------|
G|-----4h6-6h8-6p4---|-/13-12--10-------------------|
D|-4h6-4h6-6h8-6p4-6-|-/13-12--10-12p10-------------|
A|-4h6-------------6-|------------12p10-------------|
E|-------------------|------------------------------|

Refrão:
Bbm
Lorelei
F#            C#
My ship has passed you by
                  D#m
and though you promised me to show the way
F
you led me astray
              Bbm
you were my lorelei
F#            C#
what kind of fool was I
           D#m
Cause I believed in every word you said
     F
and now I wonder why
Bbm
Lorelei
Otros videos de esta canción
    1.050 exhibiciones
      • ½ Tono
      • A
      • Bb
      • B
      • C
      • Db
      • D
      • Eb
      • E
      • F
      • F#
      • G
      • Ab
    • Agregar a la lista

    Afinação da cifra

    Afinador online

      Ops (: Contenido disponible solo en portugués.
      OK