Cifra Club

Lovedrive

Scorpions

Cifrado: Principal (guitarra y guitarra eléctrica)
Selo Cifra Club: esta cifra foi revisada para atender aos critérios oficiais da nossa Equipe de Qualidade.
tono: E
G[------------------------------------|
D[------------------------------------|
A[------------------------------------|
E[------------------------------------|
 [Guitar 2
 [   ~~~~~~~~~~~~~~~~~~~~~    ~~~~~
E[-17fb--17fb--------17fbr15-22fb-----|
B[------------------------------------|
G[------------------------------------|
D[------------------------------------|
A[------------------------------------|
E[------------------------------------|

  Guitar 1
    ~~~~~~~~~~~~~~~~~~~~~    ~~~~~
E[----------------------------------|
B[-18fb--18fb--------18fbr17-15-----|
G[----------------------------------|
D[----------------------------------|
A[----------------------------------|
E[----------------------------------|
 [ Guitar 2
 [   ~~~~~~~~~~~~~~~~~~~~~    ~~~~~
E[-17fb--17fb--------17fbr15-14-----|
B[----------------------------------|
G[----------------------------------|
D[----------------------------------|
A[----------------------------------|
E[----------------------------------|

  Guitar 1
     ~~~~~~~~~~~~~~~~~~~~~    ~~~~~
E[---------------------------17fb---|
B[-18fb--18fb--------18fbr17--------|
G[----------------------------------|
D[----------------------------------|
A[----------------------------------|
E[----------------------------------|
 [Guitar 2
 [   ~~~~~~~~~~~~~~~~~~~~~    ~~~~~
E[-17fb--17fb--------17fbr15-22fb---|
B[----------------------------------|
G[----------------------------------|
D[----------------------------------|
A[----------------------------------|
E[----------------------------------|

  Guitar 1
    ~~~~~~~~~~~~~~~~~~~~~~~~~~~             ~~~~~~~~~~~~~~~~~~~~~~~~
E[-------------------------------------------------------------------|
B[-18fb--18fb--------18fbr17-15----15--------------------------------|
G[------------------------------16----16-14-14b----------------------|
D[-------------------------------------------------------------------|
A[-------------------------------------------------------------------|
E[-------------------------------------------------------------------|
 [Guitar 2
 [  ~~~~~~~~~~~~~~~~~~~~~~~~~~~~~~~
E[-22fb--22fb--------------------------------------------------------|
B[-------------------------------------------------------------------|
G[-------------------------------------------------------------------|
D[-------------------------------------------------------------------|
A[-------------------------------------------------------------------|
E[-------------------------------------------------------------------|

E|-------------------|
B|-------------------|
G-12-x-12-x-12-x-12-|
D|-------------------|
A|-------------------|
E|-------------------|


E|-------------------------------------------------------------------|
B|----12----13----12----13----12----13----12----13----12----13-------|
G|-12----12----12----12----12----12----12----12----12----12----12----|
D|-------------------------------------------------------------------|
A|-------------------------------------------------------------------|
E|-------------------------------------------------------------------|
                              ~~~~~~~~~~~~~~~~~~~~~~~~
E|-------------------------------------------------------------------|
B|-12----13-----12----13----12-13fb--13-13-13fb-13fb----\------------|
G|----12----12-----12----12------------------------------------------|
D|--------------------------------------------------------\----------|
A|--------------------------------------------------------\----------|
E|-------------------------------------------------------------------|
                        ~~~             ~~~
E|-------------17-17-17-17------------------------------15-15--------|
B|-8-0-0-7-0-0--------------15-17-17-15-17---15-1717-17-------17-15--|
G|-------------------------------------------------------------------|
D|-------------------------------------------------------------------|
A|-------------------------------------------------------------------|
E|-------------------------------------------------------------------|

  ~~~~~~~~~~~~~~~~~~~~~~      h     h     h     h     h     ~~~~~~~
E|-----------------------15p12-15p12-15p12-15p12-15p12-15p12-17fb---|
B|-17--1717-15-17--17-15b-------------------------------------------|
G|------------------------------------------------------------------|
D|------------------------------------------------------------------|
A|------------------------------------------------------------------|
E|------------------------------------------------------------------|
      ~~~~~~~~~~~~~~~~~~~  phphphphphph     h   h~~~~~~~~~~~~~~
E|--------------------------------------------------------------|
B|--------------------------------------------------------------|
G|-\---2fb------------------4-4-4-4-4-4r-2p0-2p0-2--------------|
D|-\------------------------------------------------------------|
A|--------------------------------------------------------------|
E|--------------------------------------------------------------|
Otros videos de esta canción
    10 exhibiciones
      • ½ Tono
      • A
      • Bb
      • B
      • C
      • Db
      • D
      • Eb
      • E
      • F
      • F#
      • G
      • Ab
    • Agregar a la lista

    Afinação da cifra

    Afinador online

      Ops (: Contenido disponible solo en portugués.
      OK