Cifra Club

Maybe I Maybe You

Scorpions

Cifrado: Principal (guitarra y guitarra eléctrica)
tono: D
Dedilhados:
    Fm
E|--2------2------2------2---------------------|
B|----2------2------2------2-------------------|
G|------2------2------2------2-----------------|
D|---------------------------------------------|
A|---------------------------------------------|
E|--2------2------2------2---------------------|
    Bm                           Bm da 2ª Estrofe
E|--2------2------2------2-----|-2----------2---------|
B|----3------3------3------3---|----------3---3-------|
G|------4------4------4------4-|--------4-------4-----|
D|-----------------------------|------4-----------4---|
A|--2------2------2------2-----|-2--2---------------2-|
E|-----------------------------|----------------------|
    A               D7M             C#             C#7
E|--5------5-----|--5------5-----|--4------4-----|-4------4------7--|
B|----5------5---|----7------7---|----6------6---|---6------6-------|
G|------6------6-|------6------6-|------6------6-|-----4------4-----|
D|---------------|---------------|---------------|------------------|
A|---------------|--5------5-----|--4------4-----|-4------4------4--|
E|--5------5-----|---------------|---------------|------------------|

                F#m
Maybe I, maybe you
                            Bm
Can make a change to the world
                           A
We're reaching out for a soul
D7M                         C#   C#7
That's kind of lost in the dark
                F#m
Maybe I, maybe you
                     Bm          A
Can find the key tooooooo the stars
A                       D7M
To catch the spirit of hope
          C#            F#m
To save one hopeless heart
            F#m
You look up to the sky
                            Bm
With all those questions in mind
                     A
All you need is to hear
D7M                  C#   C#7
The voice of your heart
                    F#m
In a world full of pain
                         Bm
Someone's calling your name
                        A
Why don't we make if true
D7M             C#
Maybe I, maybe you
D7              C#
Maybe I, maybe you
D7              C#    C#7
Maybe I, maybe you
Interludio:
      F#m   Bm   A  D7M    C#      C#7     F#m
E|---5~~---2~~-------------------------------------------|
B|---------------5~~3~~----2~~--2/7~~~~~~----------------|
G|-------------------------------------------------------|
D|-------------------------------------------------------|
A|-------------------------------------------------------|
E|-------------------------------------------------------|

                Gm
Maybe I, maybe you
                         Cm
Are just dreaming sometimes?
                          A#
But the world would be cold
D#7M                   D   D7
Without dreamers like you

                Gm
Maybe I, maybe you
                 Cm            A#
Are just soldieeeeeeeers of love
A#                   D#7M
Born to carry the flame
          D             Gm
Bringing light to the dark
E|-------------|-----------|--Aqui é 4X--|---------------------|
B|-------------|-----------------------------------------------|
G|-------------|-----------------------------------------------|
D|--5/0--------|---------5-X--X-X--X-X--X-2--------------------|
A|--5/0--------|---------5-X--X-X--X-X--X-2--------------------|
E|--3/0--------|---------3-X--2-X--1-X--X-0--------------------|

                    G5
You look up to the sky
                              C5
With all those questions in mind
                     A#5
All you need is to hear
      D#5            D5
The voice of your heart
D5                   G5
In a world full of pain
                         C5
Someone's calling your name
                       A#5
Why don't we make if true
D#5             D5
Maybe I, maybe you
D#5             D5
Maybe I, maybe you
D#5             D5               Gm
Maybe I, maybe youuuuuuuuuuuuuuuuuu
00:00 / 00:00
Otros videos de esta canción
Repetir
Otros videos de esta canción
Composición de Anoushirvan Rohani / Klaus Meine
Colaboración y revisión:
  • Anderson Aleixo
1.986 vistas
    • ½ Tono
    • A
    • Bb
    • B
    • C
    • Db
    • D
    • Eb
    • E
    • F
    • F#
    • G
    • Ab
  • Agregar a la lista

    0 comentarios

    Ver todos los comentarios

    ¿Lograste tocar?

    1 Tocaron 1 Aún no

    ¡Graba un video tocando Maybe I Maybe You y envíanoslo!

    00:00 / 00:00
    OK