Cifra Club

Send Me An Angel

Scorpions

Tablatura: Principal
reproducciones 6.534
Tono: G#
Intro:

E|-----------------------------------------------------------------------------|
B|-----4---------4--------2--------2---------4--------4--------------2---------|
G|-------3---------3--------1--------1---------3--------3--------1-------1-----|    - 4x e segue acompanhando a primeira estrofe  
D|--1------4---------4--------3--------3---1-----4--------4----3---3---3---3---|
A|-------------2--------4--------1------------------2--------4-----------------|
E|-----------------------------------------------------------------------------|

Primeira estrofe:

     Ebm      B         Db        Bbm
The wise man said just walk this way
Ebm     B          Db
To the dawn of the light
Ebm       B         Db        Bbm
The wind will blow into your face
Ebm     B            Db
As the years pass you by
Ebm        B          Db    Bbm
Hear this voice from deep inside
Ebm       B           Db
It's the call of your heart
Ebm         B        Db       Bbm
Close your eyes and you will find
Ebm      B             Db
Passage out of the dark

E|----------4---3----------------------------------------------------|
B|------6-------------------4---------------4------------------------|
G|----5---5---5---5-----3-------3-------3-------3-------6-------8----|    -2x no Refrão 1
D|--3-----------------5---5---5---5---5---5---5---5---6---6---8---8--|
A|------------------6---------------3---------------4-------6--------|
E|-------------------------------------------------------------------|

Refrão 1:
           
Here I am (Here I am)
                    
Will you send me an angel              
           
Here I am (Here I am)
                         
In the land of the morning star


E|---------------------------------------------------------------------|
B|----6-------6-------4-------4--------6-------6-------------4---------|
G|------5-------5-------3-------3--------5-------5-------3-------3-----|      - 2x e segue acompanhando a segunda estrofe
D|--3-----6-------6-------5-------5--3-----6-------6---5---5---5---5---|
A|----------4-------6-------3----------------4-------6-----------------|
E|---------------------------------------------------------------------|

Segunda estrofe:

     Fm      Db         Eb        Cm
Wise man said just find your place
Fm    Db          Eb
In the eye of the storm
Fm      Db         Eb        Cm
Seek the roses along the way
Fm     Db              Eb
Just beware of the thorns

Refrão 2:

E|----------6---5----------------------------------------------------------|
B|------8-------------------6----------------6-----------------------------|
G|----7---7---7---7-----5-------5--------5-------5-------8---------10------|           -2x no Refrão 2
D|--5-----------------7---7---7---7----7---7---7---7---8---8----10----10---|
A|------------------8----------------5---------------6--------8------------|
E|-------------------------------------------------------------------------|

  Gm     F    Dm
Here I am (Here I am)
            Eb        F
Will you send me an angel
  Gm     F    Dm
Here I am (Here I am)
            Eb        F     Gm
In the land of the morning star

       F          Dm
Here I am (Here I am)
            Eb        F
Will you send me an angel
  Gm     F        Dm
Here I am (Here I am)
        Eb          F       Bb
In the land of the morning star

Solo 1:

E|--------------------------------------------------------------------------------------------------22b24-22b24-22b24r22-22-20-19-20-17--20-19~~~|
B|-----------12-14-12----------12-----14b16-14b16-14b16r14--14------------12-14-12----------12---------------------------------------------------|
G|--------15----------15-13-15----15---------------------------13------15----------15-13-15----15~~----------------------------------------------|
D|--13~~~---------------------------------------------------------13~~---------------------------------------------------------------------------|
A|-----------------------------------------------------------------------------------------------------------------------------------------------|
E|-----------------------------------------------------------------------------------------------------------------------------------------------|

Base do Solo 1:

E|-----------------------------------------------------------------------------|
B|-----4---------4--------2--------2---------4--------4--------------2---------|
G|-------3---------3--------1--------1---------3--------3--------1-------1-----|    - 2x e segue acompanhando a terceira estrofe  
D|--1------4---------4--------3--------3---1-----4--------4----3---3---3---3---|
A|-------------2--------4--------1------------------2--------4-----------------|
E|-----------------------------------------------------------------------------|

Terceira estrofe:

      Ebm      B         Db       Bbm
Wise man said just raise your hand
Ebm     B          Db
And reach out for the spell
Ebm       B         Db        Bbm
Find the door to the promised land
Ebm     B          Db
Just believe in yourself
Ebm       B         Db        Bbm
Hear this voice from deep inside
Ebm     B          Db
It's the call of your heart
Ebm       B         Db        Bbm
Close your eyes and you will find
Ebm     B          Db
The way out of the dark

Base do Refrão 1 e do Solo 2:

( Fm  Eb  Cm  C#  Eb) 8x

Refrão 1:

  Fm     Eb    Cm
Here I am (Here I am)
            Db        Eb
Will you send me an angel
  Fm     Eb    Cm
Here I am (Here I am)
            Db        Eb     Fm
In the land of the morning star

Obs: A partir da quinta repetição do Refrão inicia-se o Solo 2:

Solo 2:

E|----------------------------------------------------------------------------------------13-15-16/-------15-18-18b20~~18b20~~18b20r18-18-15-16-15----------|
B|--13p14p13---13p14p13---13p14p13---13p14p13---16b18--16b18-16-13-16-16b18-16b18~--13-16-----------13-16------------------------------------------16-13~~~~|
G|----------------------------------------------------------------------------------------------------------------------------------------------------------|
D|----------------------------------------------------------------------------------------------------------------------------------------------------------|
A|----------------------------------------------------------------------------------------------------------------------------------------------------------|
E|----------------------------------------------------------------------------------------------------------------------------------------------------------|

E|--18b20-18b20-18b20r18-18-15--------|
B|-----------------------------16p18~~|
G|------------------------------------|
D|------------------------------------|
A|------------------------------------|
E|------------------------------------|

0 comentarios

    mostrar más comentarios

    ¿Conseguiste tocar?

    21tocaron0aún no

    ¡Graba un vídeo tocando Send Me An Angel y envianoslo!

    00:00 / 00:00
    outros vídeos desta música
    repetirqualidadeautomática
    Outro vídeos desta música
      00:00 / 00:00
      automática
      OK