Cifra Club

Under The Same Sun

Scorpions

Cifrado: Principal (guitarra y guitarra eléctrica)
Selo Cifra Club: esta cifra foi revisada para atender aos critérios oficiais da nossa Equipe de Qualidade.
tono: Db (forma dos acordes no tom de D) Afinación: Eb Ab Db Gb Bb Eb
         Bm     C            D
E|------------------------------------------|
B|------------------------------------------|
G|------------------------------------------|
D|------0--------0----------0---------------|
A|----2---2----3---3-----5-----5---7b-r-5---|
E|-2---------3--------5---------------------|


              Bm     C            D
E|--------------------------------------------|
B|--------------------------------------------|
G|--------------------------------------------|
D|------0--------0----------0-----4h5-4-2--0--|
A|----2---2----3---3-----5-----5--------------| (no final entra
E|-2---------3--------5-----------------------| o riff2 junto)


          Bm  C       D     Bm   C      D
E|--------------------------------------|
B|--------8-7-----7---10---8-7----------|
G|--7--9--------9--------------9--7~----| riff 2 (Rudolf)
D|--------------------------------------|
A|--------------------------------------|
E|--------------------------------------|

[Intro 4x] Bm  C  D

Bm          C       Riff 1
I saw the morning
         D
It was shattered by a gun
           Bm              C            D
Heard the scream, saw him fall no one cried
Bm         C    Riff 1 + riff 2)
I saw a mother
           D
She was praying for her son
           Bm             C                 D
Bring him back, let him live don't let him die

Em          A
Do you ever asked yourself
             F#m              Bm
Is there a heaven in the sky
     Em                A       A|---7-7--7h9--7| (Rudolf)
Why can't we get it right?

          D                       F#m
'Cause we all live under the same sun
   D                        F#m
We all walk under the same moon (yeah!)
     Bm    A#7+             D            A
Then why? why? , can't we live as one?

E|--------2| Parte (Mathias faz o riff 1 com pequnas variações
                 E rudolf faz uma base abafada)

Bm         C
I saw the evening
          D
Fading shadows one by one
                Bm           C         D
We watched the lamb lay down to the sacrifice
Bm           C
I saw the children
      D
The children of the sun
          Bm             C            D
How they wept, how they bled how they died

Em          A
Do you ever asked yourself
             F#m              Bm
Is there a heaven in the sky
     Em                A       A|---7-7--7h9--7| (Rudolf)
Why can't we stop the fight?

          D                       F#m
'Cause we all live under the same sun
   D                        F#m
We all walk under the same moon (yeah!)
      Bm   A#7+              D          D7
Then why? why? , can't we live as one

[Ponte]
   Bm                       G
Sometimes I think I'm going mad
( Day after day, day after day)
                      A#
We are losing all we had
( Day after day, day after day)
      C            D            C#
And no one seem to care, yeah!
( Day after day, day after day)
    Bm                      G
But in my heart it doesn't change
( Day after day, day after day)
                 A#
We've got to rearrange
( Day after day, day after day)
       C                  D                 C#
And bring our world some love, yeah!, yeah!
( Day after day, day after day)

  Solo 2x: Bm  A  G#  G
E|------------------------------------------|
B|-----7-8-8h10-7~---10-8-7-7h8p7-----------|
G|-7-9----------------------------9--9/11-9-|
D|------------------------------------------|
A|------------------------------------------|
E|------------------------------------------|

E|--------------------------7/9------7h9-7h9-7----7----|
B|-----------7-7-8-7-8-10-8-----10-7-----------10---7--|
G|-7-8-7-8-9--9----------------------------------------|
D|----9------------------------------------------------|
A|-----------------------------------------------------|
E|-----------------------------------------------------|

E|--7-9-10--9-10--10-9-7----12/14-12--10-9-10-10/12--|
B|-7-------------------------------------------------|
G|---------------------------------------------------|

E|-17/19-17h19-17-15-14-14h15-------------------------------------|
B|----------------------------15--------14-15---------------------|
G|------------------------------16----16-----16-14h16p14---14h16--|
D|----------------------------------16-----------------------16---|

Em              A
And does it really matter?
             F#m        Bm
If there's a heaven up above
      Em                  A
We should could use some love

          D                   F#m
'Cause we all live under the same sky
   D                   F#m
We all look up at the same stars (yeah!)
      Bm   A#7+               D                   A
Then why? why? , can't we live as one? (hey!)

          D                  F#m
'Cause we all live under the same sun
   D                   F#m
We all walk under the same moon (yeah!)
   D                   F#m
We all live under the same sky
   D                   F#m
We all look up at the same stars (yeah!)
     Bm            A#7+               D
Then why? tell me why? , can't we live as one?
Otros videos de esta canción
    2.400 exhibiciones
      • ½ Tono
      • A
      • Bb
      • B
      • C
      • Db
      • D
      • Eb
      • E
      • F
      • F#
      • G
      • Ab
    • Agregar a la lista

    Afinação da cifra

    Afinador online

      Ops (: Contenido disponible solo en portugués.
      OK