Cifra Club

Vientos de Cambio

Scorpions

Cifrado: Principal (guitarra y guitarra eléctrica)
tono: C
(intro) F  Dm  F  Dm  Am  Dm  Am  G  C

(parte 1)
E|----5---------8-------|
B|----5---------8p(6)---|
G|----5-------5-------7-|
D|--3-----5-7-----------|
A|----------------------|
E|----------------------|

(parte 2)
E|----5---------8-8---------8------|
B|----5---------8-8-6---6---8p(6)--|
G|----5-------5-------7----------7-|
D|--3-----5-7----------------------|
A|---------------------------------|
E|---------------------------------|

     Dm          C          G          C
E|--1-1---------1--0------------------1--|
B|--3---3-------1----1--------3-------1--|
G|--2-----2-----0------0---4----4-----0--|
D|--0-----------2----------5------5---2--|
A|--------------3----------5----------3--|
E|-------------------------3-------------|

C                Dm
 Por el rio de Moskva
               C
 Bajo al Gorky Park
              Dm      Am7  G
 Escuchando vientos nuevos
C                 Dm
 Verano atardecer
                  C
 Soldados al pasar
               Dm     Am7  G
 Escuchando vientos nuevos

(ponte0 F9  Dm  F  Dm  Am7  Dm  Am7 G

C                     Dm
 Se achica el mundo mas
              C
 Quien iba a creer
                   Dm   Am7    G
 Que fueramos Tu y Yo hermanos
C                    Dm
 El futuro ya se ve
                    C
 Se puede hasta tocar
                  Dm      Am7  G
 Soplando con los vientos nuevos

(refrão)
C     G         Dm           G
Llevame a la magia del momento
     C     G
De la gloria
          Dm            G         Am
Donde los niños del mañana soñarán
Am/F            G
Los cambios que vendrán

C                 Dm
 Recuerdos del ayer
             C
 Siento al recorrer
                   Dm   Am7 G
 Antiguas calles del pasado

C                Dm
 Por el rio de Moskva
               C
 Bajo al Gorky Park
              Dm      Am7  G
 Escuchando vientos nuevos

C     G         Dm           G
Llevame a la magia del momento
         C     G
De la gloria
         Dm            G        Am
Donde los niños del mañana soñarán
Am/F          G
Los cambios que vendrán

C     G         Dm           G
Llevame a la magia del momento
    C     G
De la gloria
          Dm            G            Am
Donde los sueños de los niños cambiarán
Am/F          G
A la humanidad

Am5                  G5
 El viento hará sonar
                  Am5
 La campana de la libertad
                            G5
 Ya no hay tiempo que perder
                           C5
 Hay que girar hacia la paz
                       Dm5
 Canta con tu balalaika ya
                         E5     E5
 Lo que mi guitarra quiere gritar

(solo)  F G  E  Am  F  G, Am,
        F G  E7 Am  Dm E

E|---------------------------------------------|
B|--8b(10)r(8)-5--8b(10)---5-6-8-6p5-----------|
G|-----------------------------------7b(9)-5-7-|
D|---------------------------------------------|
A|---------------------------------------------|
E|---------------------------------------------|

(parte 2)
E|--5-7b(9)---11-d---(9)r7---15b(17)-15b(17)r--12h-13p-12--|
B|---------------------------------------------------------|
G|---------------------------------------------------------|
D|---------------------------------------------------------|
A|---------------------------------------------------------|
E|---------------------------------------------------------|

(parte 3)
E|--------------------------------------------14b-r-12-14-22-b(24)-|
B|---------------------------------------15b-r---------------------|
G|---------------------------------9--10---------------------------|
D|---7--9-10-9--9-10-12-12--10--12---------------------------------|
A|-----------------------------------------------------------------|
E|-----------------------------------------------------------------|

 C     G         Dm           G
Llevame a la magia del momento
     C     G
De la gloria
         Dm            G         Am
Donde los niños del mañana soñarán
Am/F          G
Los cambios que vendrán

C     G         Dm           G
Llevame a la magia del momento
    C     G
De la gloria
              Dm            G             Am
Donde los sueños de los niños cambiarán
Am/F          G
A la humanidad

(final) F  Dm  F  Dm  Am7  Dm
00:00 / 00:00
Otros videos de esta canción
Repetir
Otros videos de esta canción
Composición de Scorpions
Colaboración y revisión:
  • Claudio Vicente
1.640 vistas
    • ½ Tono
    • A
    • Bb
    • B
    • C
    • Db
    • D
    • Eb
    • E
    • F
    • F#
    • G
    • Ab
  • Agregar a la lista

    0 comentarios

    Ver todos los comentarios

    ¿Lograste tocar?

    0 Tocaron 0 Aún no

    ¡Graba un video tocando Vientos de Cambio y envíanoslo!

    00:00 / 00:00
    OK