Cifra Club

When the smoke is going down

Scorpions

Cifrado: Principal (guitarra y guitarra eléctrica)
tono: F
Intro:

          Dm                         Bb
E|-----1--------3--1--0-----|-----1-----------0----------|
B|--------3--------------3--|--------3-----------3-------|
G|-----------2--------------|-----------2-----------2----| (Riff 1 - 6x)
D|--0-----------------------|--------------------------0-|
A|--------------------------|--1-----------3-------------|
E|--------------------------|----------------------------|
          Dm                          C
E|----1--------1--------0---|-----0--------0--------0--|
B|-------3--------3---------|--------1--------1--------| (Riff 2) (É Tocado Com A Estrofe Abaixo)
G|----------2--------2------|-----------0--------0-----|
D|-0------------------------|--------------------------|
A|--------------------------|--3-----------------------|
E|--------------------------|--------------------------|

Dm            C                     Dm Bb C
Just when you make your way back home
Dm          C               Dm Bb C
I find some time to be alone
Dm         C                      Dm Bb C
I'll go to see the place once more
Dm         C                      Dm Bb C
Just like a thousand nights before

A                             Dm
I climb the stage again this night
          D#                 Dm
Cause the place seems still alive
           C             Dm
When the smoke is going down

(Riff 1 e 2)

Dm          C                   Dm Bb C
This is the place where I belong
Dm       C                  Dm Bb C
I really love to turn you on
Dm       C                          Dm Bb C
I've got your sound still in my ears
Dm         C               Dm Bb C
While your traces disappear

 A                            Dm
I climb the stage again this night
          D#                 Dm
Cause the place seems still alive
          C            Dm
When the smoke is goin down

E|--------------------------|
B|-13---8/10---10-----------|
G|--------------------------|
D|-10---5/7----7------------|
A|--------------------------|
E|--------------------------|

A                              Dm
I climb the stage again this night
          D#                 Dm
Cause the place seems still alive
          C             Dm    Bb C Dm
When the smoke is going down
          C             Dm    Bb C Dm
When the smoke is going down
          Bb       C     Dm
When the smoke is going down
00:00 / 00:00
Otros videos de esta canción
Repetir
Otros videos de esta canción
Composición de Klaus Meine
2.656 vistas
    • ½ Tono
    • A
    • Bb
    • B
    • C
    • Db
    • D
    • Eb
    • E
    • F
    • F#
    • G
    • Ab
  • Agregar a la lista

    0 comentarios

    Ver todos los comentarios

    ¿Lograste tocar?

    18 Tocaron 2 Aún no

    ¡Graba un video tocando When the smoke is going down y envíanoslo!

    00:00 / 00:00
    OK