Cifra Club

Aprenda

A.C.H.T

Scracho

Tablatura: Principal (guitarra)
tono: G
E|------------------------------------------------------------------------------|
B|------------------------------------------------------------------------------|
G|------------------------------------------------------------------------------|
D|----9-7--7---9-7-----------------7-7/9----------7-9-7-------9-7---7-9-10-9----|
A|-------10---------10-9----7-9-10--------7-9-10--------10-9------10---------10-|
E|------------------------------------------------------------------------------|

E|-------------------------------------------------------------------------------|
B|-------------------------------------------------------------------------------|
G|-------------9-----------------------------------------------------------------|
D|--9-7--7---9---9------7---7---7/9-----------7-9-7------9-7----7-9-10-9---------|
A|-----10----------10----10--10-------7-9-10--------10-9-----10-----------10-7/0-|
E|-------------------------------------------------------------------------------|


By: Matheus Silveira
Composição de Diego Miranda / Gabriel Leal
Colaboración y revision:
  • Matheus Silveira
21 reproducciones
    • ½ Tono
    • A
    • Bb
    • B
    • C
    • Db
    • D
    • Eb
    • E
    • F
    • F#
    • G
    • Ab
  • Adicionar à lista

    0 comentarios

    Ver todos os comentários

    ¿Conseguiste tocar?

    0 Tocaram 0 Ainda não

    Grave um vídeo tocando A.C.H.T e nos envie!

    00:00 / 00:00
    outros vídeos desta música
    repetir qualidade Automático
    Outros vídeos desta música
    00:00 / 00:00
    Automático
    OK