Cifra Club

Aprenda

Alguém

Scracho

Tablatura: Principal (guitarra)
tono: G
[Intro]  G  D  E  C
         G  D  E  C

E|-3---3---2-2---2---0---0---3-3---3-----------|
B|---3---3-----3---3---0---0-----1---1---------|
G|---------------------------------------------|
D|---------------------------------------------|
A|---------------------------------------------|
E|---------------------------------------------|

     G           D       E           C
Eu me importava com tudo que você fazia
 G           D       E           C
E estar ao seu lado é o que eu queria
 G           D       E           C
Não me levava a sério e não me dava chance
 G           D       E           C
E tudo que eu queria estava ao seu alcance

G  D
Você
E     C
Foi embora
     G     D
E me abandonou
E     C           G  D
Olha agora como estou
     E              C    G    D
Me deixou pra trás

E|---3---3--5---5--3--2--0----3---3--5---5--7--5--3----|
B|-----3------3-----------------3------3---------------|
G|-----------------------------------------------------|
D|-----------------------------------------------------|
A|-----------------------------------------------------|
E|-----------------------------------------------------|

 E           C
Não te quero mais
 
( G  D  E  C )
( G  D  E  C )
( G  D  E  C )
( G  D  E  C )

E|-3---3---2-2---2---0---0---3-3---3-----------|
B|---3---3-----3---3---0---0-----1---1---------|
G|---------------------------------------------|  (4x)
D|---------------------------------------------|
A|---------------------------------------------|
E|---------------------------------------------|

G        D        E           C
Você não quis me falar o que acontecia
G        D        E           C
Alguém precisa mudar perdeu minha companhia

(refrão)

G        A            B
E agora você vive me olhando mas
 C
Não faz efeito algum
 G      A                   B            C
Precisa saber que eu não te quero mais
De jeito algum

( G  D  E  C )
( G  D  E  C )
( G  D  E  C )
( G  D  E  C )

E|-3---3---2-2---2---0---0---3-3---3-----------|
B|---3---3-----3---3---0---0-----1---1---------|
G|---------------------------------------------|  (4x)
D|---------------------------------------------|
A|---------------------------------------------|
E|---------------------------------------------|

G        D        E           C
Você não quis me falar o que acontecia
G        D        E           C
Alguém precisa mudar perdeu minha companhia

G        A            B
E agora você vive me olhando mas
 C
Não faz efeito algum
 G      A                   B            C
Precisa saber que eu não te quero mais
De jeito algum

      G  E  C
De jeito algum (não te quero mais, me deixou pra trás)               

E|----------------------------------------|
B|----------------------------------------|
G|-----7-----7-9-7-----7-----7------------|  (3x)
D|-7h9---7h9-------7h9---7h9---7-9--------|
A|----------------------------------------|
E|----------------------------------------|

E|----------------------------------------|
B|----------------------------------------|
G|-----7-----7-9-7-9-7-5------------------|
D|-7h9---7h9------------------------------|
A|----------------------------------------|
E|----------------------------------------|
Composição de Scracho
Colaboración y revision:
34 reproducciones
    • ½ Tono
    • A
    • Bb
    • B
    • C
    • Db
    • D
    • Eb
    • E
    • F
    • F#
    • G
    • Ab
  • Adicionar à lista

    0 comentarios

    Ver todos os comentários

    ¿Conseguiste tocar?

    1 Tocaram 0 Ainda não

    Grave um vídeo tocando Alguém e nos envie!

    00:00 / 00:00
    outros vídeos desta música
    repetir qualidade Automático
    Outros vídeos desta música
    00:00 / 00:00
    Automático
    OK