Cifra Club

Aprenda

Bem-Te-Vi

Scracho

Tablatura: Principal (guitarra)
tono: Eb
Intro: Eb  Ab  Eb  Ab
E|-----------------------------------------------------6/8--6---------------
B|-------------------------------------------------8---6/8--6---8-----------
G|-8p7-------------8---5--5/8----8p7-----8/10--8----------------8---10---8--
D|------8----------8---5--5/8--------8---8/10--8--------------------10---8--
A|--------8h10--------------------------------------------------------------
E|--------------------------------------------------------------------------

Eb                         Ab
E agora você diz que não se entrega mais
Eb                         Bb
E ainda diz sonhar em ser feliz.
Ab                                   Gm
E eu digo que um dia eu vou te ver cantando por ai
                            Ab
A semear sorrisos como um bem-te-vi
                         Gm
Comemorando a luz de um novo amor
      Ab                  Gm
Pois nada é feito em vão não fique ai parada
Fm                                                 Eb
Sofrendo por uma paixão finada que te impede de sorrir
Cm                                Gm
Manda quem te machucou pra bem longe daqui
Cm                                Gm
Deixa o que te faz feliz chegar e revestir
       Fm                                      Gm
Deixa quieto o canto dentro do seu peito que dizia "Por favor não quero me ferir!"
Ab                               Bb
Levante a cabeça que é hora de acordar
Eb          Eb5                     Ab         Bb
Em paz eu sigo o peito aberto a me aventurar
Eb          Eb5                     Ab
Em paz enfrento o que há de incerto sem me preocupar
Abm7
E o certo é que a saudade vai passar

( Eb  Ab  Eb  Ab )

Eb                          Ab
E agora você diz que não se entrega mais
Eb                         Bb
E ainda diz sonhar em ser feliz
    Ab                                Gm
Mas nada é feito em vão não fique ai parada
                          Fm                        Eb
Sofrendo por uma paixão finada que te impede de sorrir
Cm                             Gm
Manda o que te machucou pra bem longe daqui
Cm                                   Gm
Deixa o que te faz feliz chegar e revestir
       Fm                                     Gm
Deixa quieto o canto dentro do seu peito que dizia "Por favor não quero me ferir!"
Ab                               Bb
Levante a cabeça que e hora de acordar
Eb         Eb5                       Ab        Bb
Em paz eu sigo o peito aberto a me aventurar
Eb         Eb5                                Ab
Em paz enfrento o que há de incerto sem me preocupar
Abm7
E o certo é que há saudade ...

Dedilhado: Cm  Gm
E|------------------------------------------------------------------------------------
B|------------------------------------------------------------------------------------
G|------------------------------------------------------------------------------------
D|-----1------------1-------------1---------------------------------------------------
A|--3-------1---3----------1--3-------3--1-------1---------------1--------------1-----
E|-------3-------------3---------------------3-------0---1---3-------0---1---3-----3--

       Fm                  Gm
Deixa quieto o grito que dizia "Por favor não quero me ferir!"
Ab                             Bb
Levante a cabeça que é hora de acordar
Eb         Eb5                       Ab          Bb
Em paz eu sigo o peito aberto a me aventurar
Eb        Eb5                               Ab
Em paz enfrento o que há de incerto sem me preocupar
Bb                             Eb
E o certo é que a saudade vai passar
     Eb5                       Ab          Bb
Eu sigo o peito aberto a me aventurar
Eb        Eb5                               Ab
Em paz enfrento o que ha de incerto sem me preocupar
Abm7
E o certo é que há saudade ...
Composição de Diego Miranda / Gabriel Leal
Colaboración y revision:
  • Victor Vieira
170 reproducciones
    • ½ Tono
    • A
    • Bb
    • B
    • C
    • Db
    • D
    • Eb
    • E
    • F
    • F#
    • G
    • Ab
  • Adicionar à lista

    0 comentarios

    Ver todos os comentários

    ¿Conseguiste tocar?

    8 Tocaram 0 Ainda não

    Grave um vídeo tocando Bem-Te-Vi e nos envie!

    00:00 / 00:00
    outros vídeos desta música
    repetir qualidade Automático
    Outros vídeos desta música
    00:00 / 00:00
    Automático
    OK