Cifra Club

Aprenda

Faça Valer

Scracho

Tablatura: Principal (guitarra)
tono: G
Intro 2x: G  D  G  C  E  D  C  D
E|-------------------------------------------------------------------------------------------|
B|-------------------------------------------------------------------------------------------|
G|-----7-5-4---------4/5/4-------7-5-4--5-4---------------4--------4-----------------5/4-----|
D|-5-5-------7-7-7----------5-5--------------7-5-------------7-5-4---7-5-4--5-7-5--------5/4-|
A|---------------------------------------------------7-7-------------------------------------|
E|-------------------------------------------------------------------------------------------|

G    G D               D G
Faça valer o seu ingresso
            C
o show está bem no início
G    G D               D G
correr atras do seu progresso
           C
esse é o compromisso
G       D      B
Vem fazer valer
             C
vamos achar nosso lugar
G         D       B
vai permanecer
           C           E
essa vontade de encontrar
                          C             D
a luz no fim do tunel e nunca se entregar ao fim

(Intro)

G       G D           D G
Eu posso ate me machucar
            C
mas vou sem medo do perigo
G       G D          D G
pra quem vier me derrubar
                C
levanto e enfrento com um sorriso
G        D               B
porque alguem vai me julgar
           C              G
se nessa vida eu só insisto
G            D            B
em ser feliz me apaixonar
          C                 D       D#   D  (muda a batida)
e envelhecer com os meus amigos

G                         C
Daqui pra frente eu vou fazer historia
G                        C        D   E
Quem nao entende pode ir embora
E        D           C
Sonho em ser mais feliz
G          D       C
Sou um eterno aprendiz

( G  E  A  C ) (2x)
E|----------------------------|-------------------------------|
B|----------------------------|-------------------------------|
G|----------------------------|-----------------------------5-|
D|------2-4-5--------7-9-7----|------2-4-5--------7-9-7-----5-|
A|-5---5-----------4--------3-|-5---5-----------4--------3--3-|
E|---------------5------------|---------------5---------------|

G                          C
Daqui pra frente eu vou fazer historia
G                       C        D   E
Quem nao entende pode ir embora
E         D         C
Sonho em ser mais feliz
C
Sou um eterno
A        C          G
Sou um eterno aprendiz

G                          C
Daqui pra frente eu vou fazer historia
G                     C        D   E
Quem nao entende pode ir embora
E         D          C
Sonho em ser mais feliz
G       D          C
Sou um eterno aprendiz
Composição de Caio / Dedeh / DIEGO / Gabriel
Colaboración y revision:
  • Amário Fernandes
  • kassia bazzo
33 reproducciones
    • ½ Tono
    • A
    • Bb
    • B
    • C
    • Db
    • D
    • Eb
    • E
    • F
    • F#
    • G
    • Ab
  • Adicionar à lista

    0 comentarios

    Ver todos os comentários

    ¿Conseguiste tocar?

    0 Tocaram 1 Ainda não

    Grave um vídeo tocando Faça Valer e nos envie!

    00:00 / 00:00
    outros vídeos desta música
    repetir qualidade Automático
    Outros vídeos desta música
    00:00 / 00:00
    Automático
    OK