Cifra Club

Aprenda

Mais Um Dia

Scracho

Tablatura: Principal (guitarra)
tono: A
E|-----------------------------------------------------|
B|-----------------------------------------------------|
G|-----------------------------------------------------| 2x
D|-----------------------------------------------------|
A|---0-0-0--4-4-4--5-5-5-7-----------------------------|
E|---5-5-5--0-0-0--0-0-0-0-----------------------------|


INTRO - A5,B5 - C#5,D5,E5      2x

A5              C#5                     D5
Mais um dia se passou e eu me vejo sem você
                  E5            A5
O que eu faço se você não esta aqui
                C#5                       D5          
Pra que tanta ilusão se quem sofre é o coração
                E5                        B5
Só agora eu percebi eu não vivo mais sem ti
 
                   D5                     A5
E por muito eu esperei mas agora eu vou falar
               E5                 B5
Agora é minha vez vocês vão me escutar
                     D5                        A5 
O que eu sinto por você é forte demais pra explicar
                 E5                     B5
E quem não conseguir não poderá me acompanhar
                           D5
Mas se um dia olhar pra trás...

Repete  INTRO

A5              C#5                     D5
Mais um dia se passou e eu me vejo com você
                 E5         A5
E por mim seria todo dia assim
                C#5                       D5  
Quando a noite acabar com você quero acordar
                E5                      B5
Eu vou dar o meu melhor você vai se amarrar...

                   D5                     A5
E por muito eu esperei mas agora eu vou falar
               E5                 B5
Agora é minha vez vocês vão me escutar
                     D5                        A5 
O que eu sinto por você é forte demais pra explicar
                 E5                     B5
E quem não conseguir não poderá me acompanhar
                           D5
Mas se um dia olhar pra trás... 

E|-----------------------------------------------------|
B|-----------------------------------------------------|
G|-----------------------------------------------------|
D|-----------------------------------------------------|
A|-----------4-4-4-5-5-5-7-7-7-------------------------|
E|-----5-5-5-------------------------------------------|

[ Faz esse solo cantando esse trecho da musica ]

Mais um dia mais um dia se passou,                    
Mais um dia mais um dia se passou

A5         C#5          D5
Se for acordar e não ti ver
          E5                           repete duas vezes
Não vou querer adormecer

repete o refrão
Colaboración y revision:
  • Bruno Malizia
  • Patricia Ely
25 reproducciones
    • ½ Tono
    • A
    • Bb
    • B
    • C
    • Db
    • D
    • Eb
    • E
    • F
    • F#
    • G
    • Ab
  • Adicionar à lista

    0 comentarios

    Ver todos os comentários

    ¿Conseguiste tocar?

    0 Tocaram 0 Ainda não

    Grave um vídeo tocando Mais Um Dia e nos envie!

    00:00 / 00:00
    outros vídeos desta música
    repetir qualidade Automático
    Outros vídeos desta música
    00:00 / 00:00
    Automático
    OK