Cifra Club

Aprenda

Pelo Tempo Que For

Scracho

Tablatura: Principal (guitarra)
tono: D
E |---5---5-------5--5--------||---5---5-------5--|
B |--7-7---7-----7-7--7-------||--7-7---7-----7-7-|
G |-7---7-------0---0---------||7---7--------0--0-|
D |---------------------------||------------------|
A |---------------------------||------------------|
E |---------------------------||------------------|

D G
Ah eu esperei tanto tempo
Mas eu juro que não aguento
já tentei te esquecer
E quis parar de ter você
no meu peito o que eu faço pra ele me obedecer

D G
Ah eu por um lado te entendo (que pena...)
mas eu continuo querendo
sei que é tarde começar
mais nunca é tarde pra tentar
Nosso tempo iriamos aproveitar   (G5 F#5)A guitarra com a distorção faz isso

(riff 1)
G |---4----4----4----4----4----4----4----------
D |--4-4--4-4--4-4--4-4--4-4--4-4--4-4---5-4---
A |-2----2----2----2---------------------5-4---
E |---------------------3----3----3------3-2---

(riff 1)
Quero tentar te conhecer
B5 C#5 D5 G
Quero tentar te convencer

(coro)
D5 A5 B5 G5
Sei que não é mais
fácil assim
e se tanto faz ter um fim

     D5         A5
Se o tempo faz esquecer
    Bb5 B5           G5 F#5 A
Não tem como te dizer
Se nada acontecer

D G
Ah os seus defeitos invento
Pra fingir que eu nao me arrependo
De ter que ver você partir
Assim sem antes ver voce sorrir pra mim
Eu te juro que um dia ainda vou me arrepender

(riff 1)
Quero tentar te conhecer
B5 C#5 D5 E G
Quero tentar te convencer

(coro)

D5 A5 B5 G5
Sei que não é mais
fácil assim
e se tanto faz ter um fim

     D5         A5
Se o tempo faz esquecer
    Bb5 B5           G5 F#5 A5
Não tem como te dizer
Se nada acontecer

(solo)

G A

(base)( D5 A5 B5 G5  D5 A5 Bb5 B5 G F#5 A5 D5 )

E |-----------------------------------------|--------------------------------------------|
B |----------------7^-7^-7^-7-7-7-----------|----------------7^-7------------------------|
G |--------7---9------------------9-7-9-7-6-|--------7---9--------9-7-9-7-6-7-9----------|
D |--7-9-7---9---9--------------------------|--7-9-7---9---9-----------------------------|
A |-----------------------------------------|--------------------------------------------|
E |-----------------------------------------|--------------------------------------------|

E |--------------------------------------------------------------------------------------|
B |-------10--10--10--10--10-8-7-8-----10--10--10--10--10-8-7----------------------------|
G |-------9---9---9---9----------------9---9---9---9----------9--------------------------|
D |-------7---7---7---7----------------7---7---7---7-------------------------------------|
A |--------------------------------------------------------------------------------------|
E |--------------------------------------------------------------------------------------|

E |--------------------------------------------------------------------------------------|
B |--------------------------7^-7^-------------------------------------------------------|
G |------------4-6-7-------4-------9-7-9-------------------------------------------------|
D |------4-5-7-------4-5-7---------------------------------------------------------------|
A |--5-7---------------------------------------------------------------------------------|
E |--------------------------------------------------------------------------------------|

(coro)

D5 A5 B5 G5
Sei que não é mais
fácil assim
e se tanto faz ter um fim

     D5        A5
Se o tempo faz esquecer
    Bb5 B5            G
Não tem como te dizer
Se nada acontecer

D A Bm G A
Se nada acontecer
acontecer
Não tem como te dizer

E |---5---5-------5--5--------|
B |--7-7---7-----7-7--7-------|
G |-7---7---------------------|
D |-------------5---5---------|
A |---------------------------|
E |---------------------------|

E |---5---5-------5--5--------|
B |--7-7---7-----7-7--7-------|
G |-7---7---------------------|
D |-------------5---5---------|
A |---------------------------|
E |---------------------------|

Composição de Scracho
Colaboración y revision:
71 reproducciones
    • ½ Tono
    • A
    • Bb
    • B
    • C
    • Db
    • D
    • Eb
    • E
    • F
    • F#
    • G
    • Ab
  • Adicionar à lista

    0 comentarios

    Ver todos os comentários

    ¿Conseguiste tocar?

    1 Tocaram 0 Ainda não

    Grave um vídeo tocando Pelo Tempo Que For e nos envie!

    00:00 / 00:00
    outros vídeos desta música
    repetir qualidade Automático
    Outros vídeos desta música
    00:00 / 00:00
    Automático
    OK