Cifra Club

Aprenda

Tome Cuidado

Scracho

Tablatura: Principal (guitarra)
tono: Ab
Intro: (G#, C, F, C#)   2x (No final da segunda vez -> Riff 1)

Riff 1: (Ab, C, F, Db)
e|----------------------------------------------------------|
B|----------------------------------------------------------|
G|-6-6-6-6-5-3-3-1---3-1-0-0-3-1-0-0-3-1-0-3/5-5-5-3-1-3-5--|
D|----------1----1-1----------------------------------------|
A|----------------------------------------------------------|
E|----------------------------------------------------------|

e|----------------------------------------------------------|
B|----------------------------------------------------------|
G|-6-6-6-6-5-3-3-1---3-1-0-0-3-1-0-0-3-1-0-3/5-5-5-3-1-3-5--|
D|----------1----1-1----------------------------------------|
A|----------------------------------------------------------|
E|----------------------------------------------------------|

e|---------------|
B|---------------|
G|-6-6-6-6-5-3-1-|
D|---------------|
A|---------------|
E|---------------|

Riff 2:  (Ab, C, F, Db)
e|----------------------------------------------------------|
B|----------------------------------------------------------|
G|-6-6-6-6-5-3-3-1---3-1-0-0-3-1-0-0-3-1-0-3/5-5-5-3-1-3-5--|
D|----------1----1-1----------------------------------------|
A|----------------------------------------------------------|
E|----------------------------------------------------------|

e|----------------------------------------------------------|
B|----------------------------------------------------------|
G|-6-6-6-6-5-3-3-1---3-1-0-0-3-1-0-0-3-1-0-3/5-5-5-3-1-3-5--|
D|----------1----1-1----------------------------------------|
A|----------------------------------------------------------|
E|----------------------------------------------------------|

e|---------------|
B|---------------|
G|-6-6-6-6-------|
D|---------------|
A|---------------|
E|---------------|

Riff 3:  (Ab, C, F, Db)

e|---------------------------------------------------------------|
B|---------------------------------------------------------------|
G|-1-3-5-1-1-3-5-3-1-3-5-1-1-3-5-3-1-3-5-1-1-3-5-5-5/6-6-6-5-3-1-|
D|---------------------------------------------------------------|
A|---------------------------------------------------------------|
E|---------------------------------------------------------------|

Riff 4:  (Ab, C, F, Db)

D|--xx6xx6xx6xx6xx5xx5xx5xx5xx6xx6xx6xx6xx5xx5xx5xx5----| 


Ab          C
 O meu dia vai chegar
   F            Db
 E você vai me entender
Ab         C             F
 Você não lembra mais de mim
            Db
 Mas eu me lembro de você

 Ab       C
 Tome cuidado
F            Db
 Eu não penso em perder
Ab       C
 Estou errado
F           Db
 Mais certo não está você (Toca Riff 2)

Ab
 Então não venha
C
 Com uma saída
F
 Antes concerte
Db      
 A sua vida

 Ab
 Então não venha
C
 Com uma saída
F
 Antes concerte
Db      
 A sua vida     

(Toca Riff 3 (2x))

Ab          C
 O meu dia vai chegar
   F            Db
 E você vai me entender
Ab         C             F
 Você não lembra mais de mim
            Db
 Mas eu me lembro de você

 Ab       C
 Tome cuidado
F           Db
 Eu não penseo em perder
Ab       C
 Estou errado
F           Db
 Mais certo não está você    (Toca Riff 2)

Ab
 Então não venha
C
 Com uma saída
F
 Antes concerte
Db      
 A sua vida

 Ab
 Então não venha
C
 Com uma saída
F
 Antes concerte
Db      
 A sua vida

Ab, Eb - Db - C, F, Eb - Db

(Toca Riff 4) 2x
 
 Penso em você

Ab
 Então não venha
C
 Com uma saída
F
 Antes concerte (Penso em você)
Db      
 A sua vida

Ab
 Então não venha
C
 Com uma saída
F
 Antes concerte (Penso em você)
Db           Ab
 A sua vida
Colaboración y revision:
  • Luiz Gabriel
  • Irton Aguiar
19 reproducciones
    • ½ Tono
    • A
    • Bb
    • B
    • C
    • Db
    • D
    • Eb
    • E
    • F
    • F#
    • G
    • Ab
  • Adicionar à lista

    0 comentarios

    Ver todos os comentários

    ¿Conseguiste tocar?

    0 Tocaram 0 Ainda não

    Grave um vídeo tocando Tome Cuidado e nos envie!

    00:00 / 00:00
    outros vídeos desta música
    repetir qualidade Automático
    Outros vídeos desta música
    00:00 / 00:00
    Automático
    OK