Cifra Club

I Wanna Be A Homosexual

Screeching Weasel

Cifrado: Principal (guitarra y guitarra eléctrica)
Selo Cifra Club: esta cifra foi revisada para atender aos critérios oficiais da nossa Equipe de Qualidade.
tono: B
Introduction:

Gtr. I
0:03

E|-------------------------------------------------|
B|---17--16-12~--------(12)17-16-12---12~----12~---|
G|----------------------------------13~------------|
D|-------------------------------------------------|
A|-------------------------------------------------|
E|-------------------------------------------------|

(continued)
E|-------------------------------------------------------|
B|---12--12-16-12--12---12---12--(12)17-16-12-12--12-----|
G|-----13------------13---13---13---------------13--13---|
D|-------------------------------------------------------|
A|-------------------------------------------------------|
E|-------------------------------------------------------|

(continued)
E|-----------------------------------------------------------|
B|---12--(12)17-16-12--12---12---12---12-12-12-12-12-12-12---|
G|-----13----------------13---13---13-13-13-13-13-13-13-13---|
D|-----------------------------------------------------------|
A|-----------------------------------------------------------|
E|-----------------------------------------------------------|

(continued)
E|---------------------------------------------------------|
B|---/19--19-19-19-19-19-19--19-19-19-19-19-19-19--19-19---|
G|---------------------------------------------------------|
D|---------------------------------------------------------|
A|---------------------------------------------------------|
E|---------------------------------------------------------|

(continued)
E|-----------------------------------------------------|
B|---19-19-19-19--19-19-19-19-19--19--19-19-19-19-19---|
G|-----------------------------------------------------|
D|-----------------------------------------------------|
A|-----------------------------------------------------|
E|-----------------------------------------------------|

(continued)
E|---19---------------------------------------------|
B|------19-19-19-19-19-19-19-19-19-19-19-17-16-12---|
G|--------------------------------------------------|
D|--------------------------------------------------|
A|--------------------------------------------------|
E|--------------------------------------------------|

(continued)
E|-----------------------------------------------------|
B|---12-16-17-16-12-16-17-16-12-16-17-16-12-16-17-16---|
G|-----------------------------------------------------|
D|-----------------------------------------------------|
A|-----------------------------------------------------|
E|-----------------------------------------------------|

(continued)
E|-----------------------------------------------------|
B|---12-16-17-16-12-16-17-16-12-16-17-16-12-16-17-16---|
G|-----------------------------------------------------|
D|-----------------------------------------------------|
A|-----------------------------------------------------|
E|-----------------------------------------------------|

(continued)
E|-------------------------|
B|---16-17-16-17-16--12~---|
G|-------------------------|
D|-------------------------|
A|-------------------------|
E|-------------------------|

Gtr. II
0:07

     B5        E5         C#5                 E
E|-----------------------------------------------------|
B|----------------------------------------------7------|
G|------------------9-----------------------9----9-----|
D|--------9----------9---------11------------9-----9---|
A|---------9---7-(7)--7----------11---7-(7)---7--------|
E|---7-(7)--7------------9-(9)-----9-------------------|

Gtr. II Intro x3

Intro Riff 2:
          B5            E5            C#5            E5
E|--------------------------------------------------------------|
B|--------------------------------------------------------------|
G|-----------------9--9-9--9-9-9----------------9--9-9--9-9-9---|
D|---9--9-9--9-9-9-9--9-9--9-9-9-11-1111-111111-9--9-9--9-9-9---|
A|---9--9-9--9-9-9-7--7-7--7-7-7-11-1111-111111-7--7-7--7-7-7---|
E|---7--7-7--7-7-7---------------9--9-9--9-9-9------------------|

Intro Riff 2:

0:56

Gtr. I & II (All w/ distortion from here on)
Bridge:
     B5  C#5 E5
E|----------------|
B|----------------|
G|------------9---|
D|---9--9--11-9---|
A|---9--9--11-7---|
E|---7--7--9------|

Bridge x2

1:05

Gtr. I & II 
Verse:
                  B5                  C#5      E5
E|------------------------------------------------------|
B|------------------------------------------------------|
G|--------------------------------------------9-9-9-9---|
D|---9-9-9-9-9-9-9-9-9-9-9-9-9-9-9-9-11111111-9-9-9-9---|
A|---9-9-9-9-9-9-9-9-9-9-9-9-9-9-9-9-11111111-7-7-7-7---|
E|---7-7-7-7-7-7-7-7-7-7-7-7-7-7-7-7-9-9-9-9------------|

Verse x4

Chorus:

      B5      F#5    G#5      E5
E|-------------------------------------|
B|-------------------------------------|
G|-----------4-4-4-4---------9-9-9-9---|
D|---4-4-4-4-4-4-4-4-6-6-6-6-9-9-9-9---|
A|---4-4-4-4-2-2-2-2-6-6-6-6-7-7-7-7---|
E|---2-2-2-2---------4-4-4-4-----------|

Chorus x4

Verse x4

Chorus x4

2:12

Interlude:

          E5              C#5               G#5
E|------------------------------------------------------|
B|------------------------------------------------------|
G|---9-9-9-9-9-9-9-9-1111111111111111-------------------|
D|---9-9-9-9-9-9-9-9-1111111111111111-6-6-6-6-6-6-6-6---|
A|---7-7-7-7-7-7-7-7-9-9-9-9-9-9-9-9--6-6-6-6-6-6-6-6---|
E|------------------------------------4-4-4-4-4-4-4-4---|

(continued)

          E5
E|---------------------|
B|---------------------|
G|---9-9-9-9-9-9-9-9---|
D|---9-9-9-9-9-9-9-9---|
A|---7-7-7-7-7-7-7-7---|
E|---------------------|

Interlude x2

(continued)
 
           E5              C#5
E|--------------------------------------|
B|--------------------------------------|
G|---9-9-9-9-9-9-9-9-1111111111111111---|
D|---9-9-9-9-9-9-9-9-1111111111111111---|
A|---7-7-7-7-7-7-7-7-9-9-9-9-9-9-9-9----|
E|--------------------------------------|

Interlude x1 (in all)

Verse x4

Chorus x4

Outro:
   B5
E|-------|
B|-------|
G|---4---|
D|---4---|
A|---2---|
E|-------|
Otros videos de esta canción
    10 exhibiciones
      • ½ Tono
      • A
      • Bb
      • B
      • C
      • Db
      • D
      • Eb
      • E
      • F
      • F#
      • G
      • Ab
    • Agregar a la lista

    Afinación de cifrado

    Afinador online

      OK