Cifra Club

No Hay Nadie Más

Sebastián Yatra

Tablatura: Principal (guitarra)
Tom: F#
[Intro] F#  D#m7  B9  C#  F#

   F#                 D#m7
E|-9--------9-------------------------------|
B|-----11-------11----6---7---6---7---------|
G|------------------------------------------|
D|------------------------------------------|
A|-9-x-9--x-9-x-9--x--6-x-6-x-6-x-6---------|
E|---x----x---x----x----x---x---x-----------|

   B9       C#       F#
E|------------------------------------------|
B|-2----------------------------------------|
G|-----4-3----------------------------------|
D|-------x--3---4----3---4---3---4----------|
A|-2-x-2-x--4-x-4-x----x---x---x---x--------|
E|---x---x----x---x--2-x-2-x-2-x-2-x--------|

[Primeira Parte]

Parte 1 de 3

   F#                 D#m7
E|------------------------------------------|
B|-11--11---11--11----7---7---7---7---------|
G|------------------------------------------|
D|------------------------------------------|
A|-9-x-9--x-9-x-9--x--6-x-6-x-6-x-6---------|
E|---x----x---x----x----x---x---x-----------|

Parte 2 de 3

   B       C#       
E|------------------------------------------|
B|-4---4----6---6---------------------------|
G|------------------------------------------|
D|------------------------------------------|
A|-2-x-2-x--4-x-4-x-------------------------|
E|---x---x----x---x-------------------------|

Parte 3 de 3

   F#
E|------------------------------------------|
B|-9h11-9---9-------------------------------|
G|------------11--10-11---------------------|
D|-----------------------11-----------------|
A|-9------x-9---x-9----x-9--x---------------|
E|--------x-----x------x----x---------------|

Parte 3 de 3 (variação)

   F#
E|------------------------------------------|
B|-9h11-9---7h9-7---------------------------|
G|------------------10-11--11---------------|
D|------------------------------------------|
A|-9------x-9-----x-9----x-9--x-------------|
E|--------x-------x------x----x-------------|

    F#                            D#m7
Recuerdo aquel día como si fuera hoy
                 B             C#            F#
No hay nada como ella, ni siquiera me encontró
    F#                            D#m7
Recuerdo todavía la vez que la besé
                B            C#             F#
Fue mi primer amor y ahora escribo su canción

[Pré-Refrão]

   D#m7     B       F#       C#
E|-----9--------7---------------------------|
B|-7--------7----------------6---7----------|
G|------------------6---6-------------------|
D|------------------------------------------|
A|-6-x-6-x----x---x-9-x-9-x--4-x-4-x--------|
E|---x---x--7-x-7-x---x---x----x---x--------|

   D#m7     B       F#       C#
E|-----9------------------------------------|
B|-7------------7------------6--------------|
G|----------8-------6---6----6--------------|
D|---------------------------6--------------|
A|-6-x-6-x----x---x-9-x-9-x--4--------------|
E|---x---x--7-x-7-x---x---x-----------------|

          D#m7       B               F#
Hay algo más inexplicable como su mirada
       C#              D#m7           B
Inigualable como la manera en que me cela
              F#                  C#
Y trata de disimular que no está mal

[Refrão]

   F#         C#       D#m      B
E|------------------------------------------|
B|-11---11----6---6----7---7----4---4-------|
G|------------------------------------------|
D|------------------------------------------|
A|-9--x-9--x--4-x-4-x--6-x-6-x--2-x-2-x-----|
E|----x----x----x---x----x---x----x---x-----|

          F#           C#           D#m          B
Voy a cuidarte por la noches, voy amarte sin reproches
               F#              C#
Te voy a extrañar en la tempestad
                        D#m              B
Y aunque existan mil razones para renunciar

[Riff]

E|-16h18-16-16-14--13-14-11~----------------|
B|------------------------------------------|
G|------------------------------------------| (2x)
D|------------------------------------------|
A|------------------------------------------|
E|------------------------------------------|

              F#  C#                D#m7  B
No hay nadie más     (no hay nadie más)

[Segunda Parte]

F#                              C#
   Se llevo todo, se llevo tristeza
                                   D#m7
Ya no existe espacio en la melancolía
                             B
Porque a su lado todo tiene mas razón
F#                                  C#
   Me lleve sus lagrimas, llegaron risas
                                        D#m7         B
Cuando estamos juntos la tierra se paraliza (se paraliza)

[Pré-Refrão]

          D#m7       B               F#
Hay algo más inexplicable como su mirada
       C#              D#m7           B
Inigualable como la manera en que me cela
              F#                  C#
Y trata de disimular que no está mal

[Refrão]

          F#           C#           D#m          B
Voy a cuidarte por la noches, voy amarte sin reproches
               F#              C#
Te voy a extrañar en la tempestad
                        D#m              B
Y aunque existan mil razones para renunciar

          F#           C#           D#m          B
Voy a cuidarte por la noches, voy amarte sin reproches
               F#            C#
Te voy a extrañar en la soledad
                        D#m             B
Y aunque existan mil razones para terminar

[Riff]

E|-16h18-16-16-14--13-14-11~----------------|
B|------------------------------------------|
G|------------------------------------------| (2x)
D|------------------------------------------|
A|------------------------------------------|
E|------------------------------------------|

              F#  C#                D#m7  B
No hay nadie más     (no hay nadie más)
                   F#  C#
No quiero a nadie más
              D#m7  B
No hay nadie más      (no hay nadie)
reproducciones 9.546
Acordes para:
    Composição: Andrés Múnera / Fernando Tobon / Sebastian Yatra Colaboración y revision:
    • Thiago Almeida
    • CaNi NiTo
    • juan davila

    0 comentarios

    mostrar más comentarios

    ¿Conseguiste tocar?

    9 tocaron 5 aún no

    ¡Graba un vídeo tocando No Hay Nadie Más y envianoslo!

    00:00 / 00:00
    outros vídeos desta música
    repetir qualidade Automático
    Outros vídeos desta música
    00:00 / 00:00
    Automático
    OK