Cifra Club

Alone Jealous And Stoned

Secret Machines

Cifrado: Principal (guitarra y guitarra eléctrica)
tono: G
Album: Ten Silver Drops

Tabbed by: Mathew Hofton (*)

Tuning: Standard

Intro

Crazy synth noises, then...

e|---------------||
b|---------------||
g|--9--9--9--9--o||
d|--9--9--9--9--o||
a|---------------||
E|---------------||X4

e|----------------------------------------------------------------------||
b|----------------------------------------------------------------------||
g|--9-9-9-9-11-11-9-9--9--9--9--9-11-11--9--9-11-11-11-11--9--9-11-11--o||
d|--9-9-9-9--9--9-9-9-11-11-11-11-11-11-11-11--9--9--9--9--9--9--9--9--o||
a|----------------------------------------------------------------------||
E|----------------------------------------------------------------------||X2


Verse

e|----------------------------------------------------------------------||
b|----------------------------------------------------------------------||
g|--9-9-9-9-11-11-9-9--9--9--9--9-11-11--9--9-11-11-11-11--9--9-11-11--o||
d|--9-9-9-9--9--9-9-9-11-11-11-11-11-11-11-11--9--9--9--9--9--9--9--9--o||
a|----------------------------------------------------------------------||
E|----------------------------------------------------------------------||X2
 

e|------------------------------------------------------------------||
b|------9--------------10------10------------12------12-10-9--------||
g|----9---9-11----13------9-------11----9-------11-----------11-9--o||
d|--9-----------------------11---------------------9---------------o||
a|------------------------------------------------------------------||
E|------------------------------------------------------------------||X2

Repeat the above for next verse.

Silence...
Piano comes in

A            E           A            E
I waited for you         I waited for you

A      B     D     A     E
I always...


Middle part, played over lots of E chord

with long stereo delay effect
e|-------------------------------------------------------------
b|------------------------------------------------------9------
g|----------------------------------9-------11\9/11------------
d|--11\9/11p9-----------11\9/11p9-------------------9----------
a|--------------11---------------------------------------------
E|-------------------------------------------------------------

e|------------------------------12---16-------
b|--10p9---9---12------14\12/14---------------
g|-------9------------------------------------
d|--------------------------------------------
a|--------------------------------------------
E|--------------------------------------------

e|--17p16---------------------------------------------------------|
b|--------17-15---12---10---9---5---3-----------------------------|
g|--------------------------------------4---2---1-----------------|
d|--------------------------------------------------2---0----0-2--|
a|---------------------------------------------------------2------|
E|----------------------------------------------------------------|


E.......

A            E           A            E
Ahhh                     Ahhh

A      B     D     A     E
Ahhh


Another verse



Outro

E... build up   

A            E           A            E
I waited for you         I waited for you

A      B     D     A     E
I always...
00:00 / 00:00
Otros videos de esta canción
Repetir
Otros videos de esta canción
Composición de Secret Machines
37 vistas
    • ½ Tono
    • A
    • Bb
    • B
    • C
    • Db
    • D
    • Eb
    • E
    • F
    • F#
    • G
    • Ab
  • Agregar a la lista

    0 comentarios

    Ver todos los comentarios

    ¿Lograste tocar?

    0 Tocaron 0 Aún no

    ¡Graba un video tocando Alone Jealous And Stoned y envíanoslo!

    00:00 / 00:00
    OK