Cifra Club

Lightning Blue Eyes Solo

Secret Machines

Cifrado: Principal (guitarra y guitarra eléctrica)
tono: C
Quality band. Quality song. Quality.
This is my first tab so be gentle.
JA Mate.

|---------------------------------------------------------------------|
|-14-14-14-12-12-12---------------------------------------------------|
|-------------------15-15-15-11-11-11-------11-11--13-11-13-13b-------|
|-------------------------------------13-13--------------------13-----|
|---------------------------------------------------------------------|
|---------------------------------------------------------------------|

|---------------------------------------------------------------------|
|---------------------------------------------------------------------|
|----11-13-11-13-13b----16-15----10-13-----10-13----10-12-13-13-13-13-|
|-13-----------------13-------11--------11-------11-------------------|
|---------------------------------------------------------------------|
|---------------------------------------------------------------------|

|---------------------------------------------------------------------|
|-14-14-14-12-12-12-------------------------------15-------17---------|
|-------------------15-15-15-11-13-11-14-13-16-14----16-14----16-14---|
|---------------------------------------------------------------------|
|---------------------------------------------------------------------|
|---------------------------------------------------------------------|

|---------------------------------------------------------------------|
|-15----17-------17-------15----18-------18-------18-17-15---17-17----|
|----16----16-14----16-14----16----17-15----17-15----------16---------|
|---------------------------------------------------------------------|
|---------------------------------------------------------------------|
|---------------------------------------------------------------------|

|---------------------------------------------------------------------|
|-10-10-12-12-15-12----15-12----15-12----15-12-12---------------------|
|-------------------14-------14-------14------------------------------|
|---------------------------------------------------------------------|
|---------------------------------------------------------------------|
|---------------------------------------------------------------------|
00:00 / 00:00
Otros videos de esta canción
Repetir
Otros videos de esta canción
Compositor no encontrado.
17 vistas
    • ½ Tono
    • A
    • Bb
    • B
    • C
    • Db
    • D
    • Eb
    • E
    • F
    • F#
    • G
    • Ab
  • Agregar a la lista

    0 comentarios

    Ver todos los comentarios

    ¿Lograste tocar?

    0 Tocaron 0 Aún no

    ¡Graba un video tocando Lightning Blue Eyes Solo y envíanoslo!

    00:00 / 00:00
    OK